  0
SECTION
  2
HEADER
  9
$ACADVER
  1
AC1014
  9
$ACADMAINTVER
 70
     0
  9
$DWGCODEPAGE
  3
ANSI_1252
  9
$INSBASE
 10
185.458386
 20
16.702261
 30
0.0
  9
$EXTMIN
 10
235.58257
 20
48.532103
 30
0.0
  9
$EXTMAX
 10
503.347505
 20
446.355732
 30
0.0
  9
$LIMMIN
 10
0.0
 20
0.0
  9
$LIMMAX
 10
594.0
 20
420.0
  9
$ORTHOMODE
 70
     1
  9
$REGENMODE
 70
     1
  9
$FILLMODE
 70
     1
  9
$QTEXTMODE
 70
     0
  9
$MIRRTEXT
 70
     1
  9
$DRAGMODE
 70
     2
  9
$LTSCALE
 40
1.0
  9
$OSMODE
 70
    39
  9
$ATTMODE
 70
     1
  9
$TEXTSIZE
 40
3.0
  9
$TRACEWID
 40
10.0
  9
$TEXTSTYLE
  7
ROMANS
  9
$CLAYER
  8
OUTLINE
  9
$CELTYPE
  6
BYLAYER
  9
$CECOLOR
 62
   256
  9
$CELTSCALE
 40
1.0
  9
$DELOBJ
 70
     1
  9
$DISPSILH
 70
     0
  9
$DIMSCALE
 40
1.0
  9
$DIMASZ
 40
3.0
  9
$DIMEXO
 40
1.0
  9
$DIMDLI
 40
10.0
  9
$DIMRND
 40
0.0
  9
$DIMDLE
 40
1.25
  9
$DIMEXE
 40
1.0
  9
$DIMTP
 40
0.0
  9
$DIMTM
 40
0.0
  9
$DIMTXT
 40
3.0
  9
$DIMCEN
 40
-3.0
  9
$DIMTSZ
 40
0.0
  9
$DIMTOL
 70
     0
  9
$DIMLIM
 70
     0
  9
$DIMTIH
 70
     0
  9
$DIMTOH
 70
     0
  9
$DIMSE1
 70
     0
  9
$DIMSE2
 70
     0
  9
$DIMTAD
 70
     1
  9
$DIMZIN
 70
     9
  9
$DIMBLK
  1

  9
$DIMASO
 70
     1
  9
$DIMSHO
 70
     1
  9
$DIMPOST
  1

  9
$DIMAPOST
  1

  9
$DIMALT
 70
     0
  9
$DIMALTD
 70
     2
  9
$DIMALTF
 40
0.03937
  9
$DIMLFAC
 40
1.0
  9
$DIMTOFL
 70
     0
  9
$DIMTVP
 40
0.0
  9
$DIMTIX
 70
     0
  9
$DIMSOXD
 70
     0
  9
$DIMSAH
 70
     0
  9
$DIMBLK1
  1

  9
$DIMBLK2
  1

  9
$DIMSTYLE
  2
NM
  9
$DIMCLRD
 70
     7
  9
$DIMCLRE
 70
     7
  9
$DIMCLRT
 70
     7
  9
$DIMTFAC
 40
1.0
  9
$DIMGAP
 40
2.0
  9
$DIMJUST
 70
     0
  9
$DIMSD1
 70
     0
  9
$DIMSD2
 70
     0
  9
$DIMTOLJ
 70
     1
  9
$DIMTZIN
 70
     9
  9
$DIMALTZ
 70
     9
  9
$DIMALTTZ
 70
     9
  9
$DIMFIT
 70
     0
  9
$DIMUPT
 70
     0
  9
$DIMUNIT
 70
     2
  9
$DIMDEC
 70
     2
  9
$DIMTDEC
 70
     2
  9
$DIMALTU
 70
     2
  9
$DIMALTTD
 70
     2
  9
$DIMTXSTY
  7
ROMANS
  9
$DIMAUNIT
 70
     0
  9
$LUNITS
 70
     2
  9
$LUPREC
 70
     2
  9
$SKETCHINC
 40
1.0
  9
$FILLETRAD
 40
0.0
  9
$AUNITS
 70
     0
  9
$AUPREC
 70
     2
  9
$MENU
  1
MECH_DES
  9
$ELEVATION
 40
0.0
  9
$PELEVATION
 40
0.0
  9
$THICKNESS
 40
0.0
  9
$LIMCHECK
 70
     0
  9
$BLIPMODE
 70
     0
  9
$CHAMFERA
 40
0.5
  9
$CHAMFERB
 40
0.5
  9
$CHAMFERC
 40
0.0
  9
$CHAMFERD
 40
0.0
  9
$SKPOLY
 70
     1
  9
$TDCREATE
 40
2450172.615823380
  9
$TDUPDATE
 40
2452696.322428472
  9
$TDINDWG
 40
2.3939834722
  9
$TDUSRTIMER
 40
2.3939834722
  9
$USRTIMER
 70
     1
  9
$ANGBASE
 50
0.0
  9
$ANGDIR
 70
     0
  9
$PDMODE
 70
     0
  9
$PDSIZE
 40
0.0
  9
$PLINEWID
 40
0.0
  9
$COORDS
 70
     2
  9
$SPLFRAME
 70
     0
  9
$SPLINETYPE
 70
     6
  9
$SPLINESEGS
 70
     8
  9
$ATTDIA
 70
     1
  9
$ATTREQ
 70
     1
  9
$HANDLING
 70
     1
  9
$HANDSEED
  5
4AC
  9
$SURFTAB1
 70
     6
  9
$SURFTAB2
 70
     6
  9
$SURFTYPE
 70
     6
  9
$SURFU
 70
     6
  9
$SURFV
 70
     6
  9
$UCSNAME
  2

  9
$UCSORG
 10
0.0
 20
0.0
 30
0.0
  9
$UCSXDIR
 10
1.0
 20
0.0
 30
0.0
  9
$UCSYDIR
 10
0.0
 20
1.0
 30
0.0
  9
$PUCSNAME
  2

  9
$PUCSORG
 10
0.0
 20
0.0
 30
0.0
  9
$PUCSXDIR
 10
1.0
 20
0.0
 30
0.0
  9
$PUCSYDIR
 10
0.0
 20
1.0
 30
0.0
  9
$USERI1
 70
  7071
  9
$USERI2
 70
     1
  9
$USERI3
 70
     0
  9
$USERI4
 70
     0
  9
$USERI5
 70
     0
  9
$USERR1
 40
900.0
  9
$USERR2
 40
900.0
  9
$USERR3
 40
50.0
  9
$USERR4
 40
0.0
  9
$USERR5
 40
3600.0
  9
$WORLDVIEW
 70
     1
  9
$SHADEDGE
 70
     3
  9
$SHADEDIF
 70
    70
  9
$TILEMODE
 70
     1
  9
$MAXACTVP
 70
    16
  9
$PINSBASE
 10
0.0
 20
0.0
 30
0.0
  9
$PLIMCHECK
 70
     0
  9
$PEXTMIN
 10
1.000000E+20
 20
1.000000E+20
 30
1.000000E+20
  9
$PEXTMAX
 10
-1.000000E+20
 20
-1.000000E+20
 30
-1.000000E+20
  9
$PLIMMIN
 10
0.0
 20
0.0
  9
$PLIMMAX
 10
12.0
 20
9.0
  9
$UNITMODE
 70
     0
  9
$VISRETAIN
 70
     0
  9
$PLINEGEN
 70
     0
  9
$PSLTSCALE
 70
     0
  9
$TREEDEPTH
 70
  3020
  9
$PICKSTYLE
 70
     1
  9
$CMLSTYLE
  2
STANDARD
  9
$CMLJUST
 70
     0
  9
$CMLSCALE
 40
1.0
  9
$PROXYGRAPHICS
 70
     1
  9
$MEASUREMENT
 70
     0
  0
ENDSEC
  0
SECTION
  2
CLASSES
  0
CLASS
  1
LWPOLYLINE
  2
AcDbPolyline
  3
"AutoCAD"
 90
        0
280
     0
281
     1
  0
ENDSEC
  0
SECTION
  2
TABLES
  0
TABLE
  2
VPORT
  5
12
100
AcDbSymbolTable
 70
     1
  0
VPORT
  5
4A8
100
AcDbSymbolTableRecord
100
AcDbViewportTableRecord
  2
*ACTIVE
 70
     0
 10
0.0
 20
0.0
 11
1.0
 21
1.0
 12
369.464448
 22
247.440066
 13
0.0
 23
0.0
 14
0.5
 24
0.5
 15
12.0
 25
12.0
 16
0.0
 26
0.0
 36
1.0
 17
0.0
 27
0.0
 37
0.0
 40
402.517174
 41
1.806641
 42
50.0
 43
0.0
 44
0.0
 50
0.0
 51
0.0
 71
     0
 72
   250
 73
     1
 74
     0
 75
     0
 76
     0
 77
     0
 78
     2
  0
ENDTAB
  0
TABLE
  2
LTYPE
  5
D
100
AcDbSymbolTable
 70
     2
  0
LTYPE
  5
E
100
AcDbSymbolTableRecord
100
AcDbLinetypeTableRecord
  2
BYBLOCK
 70
     0
  3

 72
    65
 73
     0
 40
0.0
  0
LTYPE
  5
F
100
AcDbSymbolTableRecord
100
AcDbLinetypeTableRecord
  2
BYLAYER
 70
     0
  3

 72
    65
 73
     0
 40
0.0
  0
LTYPE
  5
5
100
AcDbSymbolTableRecord
100
AcDbLinetypeTableRecord
  2
CONTINUOUS
 70
     0
  3
Solid line
 72
    65
 73
     0
 40
0.0
  0
LTYPE
  5
93
100
AcDbSymbolTableRecord
100
AcDbLinetypeTableRecord
  2
CENTER2
 70
     0
  3
___ _ ___ _ ___ _ ___ _ ___ _ ___ _ ___ _ ___ _
 72
    65
 73
     4
 40
28.575
 49
19.05
 74
     0
 49
-3.175
 74
     0
 49
3.175
 74
     0
 49
-3.175
 74
     0
  0
ENDTAB
  0
TABLE
  2
LAYER
  5
A
100
AcDbSymbolTable
 70
     5
  0
LAYER
  5
4
100
AcDbSymbolTableRecord
100
AcDbLayerTableRecord
  2
0
 70
     0
 62
     7
  6
CONTINUOUS
  0
LAYER
  5
2A
100
AcDbSymbolTableRecord
100
AcDbLayerTableRecord
  2
DEFPOINTS
 70
     0
 62
     7
  6
CONTINUOUS
  0
LAYER
  5
69
100
AcDbSymbolTableRecord
100
AcDbLayerTableRecord
  2
GRIPPER
 70
     0
 62
     1
  6
CONTINUOUS
  0
LAYER
  5
20
100
AcDbSymbolTableRecord
100
AcDbLayerTableRecord
  2
DIM_GRIP
 70
     0
 62
     7
  6
CONTINUOUS
  0
LAYER
  5
3BD
100
AcDbSymbolTableRecord
100
AcDbLayerTableRecord
  2
OUTLINE
 70
     0
 62
     1
  6
CONTINUOUS
  0
ENDTAB
  0
TABLE
  2
STYLE
  5
B
100
AcDbSymbolTable
 70
     2
  0
STYLE
  5
C
100
AcDbSymbolTableRecord
100
AcDbTextStyleTableRecord
  2
STANDARD
 70
     0
 40
0.0
 41
1.0
 50
0.0
 71
     0
 42
3.0
  3
simplex
  4

  0
STYLE
  5
1C
100
AcDbSymbolTableRecord
100
AcDbTextStyleTableRecord
  2
ROMANS
 70
     0
 40
0.0
 41
1.0
 50
0.0
 71
     0
 42
3.0
  3
ROMANS.shx
  4

  0
ENDTAB
  0
TABLE
  2
VIEW
  5
10
100
AcDbSymbolTable
 70
     0
  0
ENDTAB
  0
TABLE
  2
UCS
  5
11
100
AcDbSymbolTable
 70
     0
  0
ENDTAB
  0
TABLE
  2
APPID
  5
14
100
AcDbSymbolTable
 70
     1
  0
APPID
  5
15
100
AcDbSymbolTableRecord
100
AcDbRegAppTableRecord
  2
ACAD
 70
     0
  0
ENDTAB
  0
TABLE
  2
DIMSTYLE
  5
16
100
AcDbSymbolTable
 70
     2
  0
DIMSTYLE
105
3F
100
AcDbSymbolTableRecord
100
AcDbDimStyleTableRecord
  2
NM
 70
     0
  3

  4

  5

  6

  7

 40
1.0
 41
3.0
 42
1.0
 43
10.0
 44
1.0
 45
0.0
 46
1.25
 47
0.0
 48
0.0
140
3.0
141
-3.0
142
0.0
143
0.03937
144
1.0
145
0.0
146
1.0
147
2.0
 71
     0
 72
     0
 73
     0
 74
     0
 75
     0
 76
     0
 77
     1
 78
     9
170
     0
171
     2
172
     0
173
     0
174
     0
175
     0
176
     7
177
     7
178
     7
270
     2
271
     2
272
     2
273
     2
274
     2
340
1C
275
     0
280
     0
281
     0
282
     0
283
     1
284
     9
285
     9
286
     9
287
     0
288
     0
  0
DIMSTYLE
105
1E
100
AcDbSymbolTableRecord
100
AcDbDimStyleTableRecord
  2
DIA
 70
     0
  3
%%c<>
  4

  5

  6

  7

 40
1.0
 41
3.0
 42
1.0
 43
10.0
 44
1.0
 45
0.0
 46
1.25
 47
0.0
 48
0.0
140
3.0
141
-3.0
142
0.0
143
0.03937
144
1.0
145
0.0
146
1.0
147
2.0
 71
     0
 72
     0
 73
     0
 74
     0
 75
     0
 76
     0
 77
     1
 78
     9
170
     0
171
     2
172
     0
173
     0
174
     0
175
     0
176
     7
177
     7
178
     7
270
     2
271
     2
272
     2
273
     2
274
     2
340
1C
275
     0
280
     0
281
     0
282
     0
283
     1
284
     9
285
     9
286
     9
287
     0
288
     0
  0
ENDTAB
  0
TABLE
  2
BLOCK_RECORD
  5
1
100
AcDbSymbolTable
 70
    18
  0
BLOCK_RECORD
  5
2
100
AcDbSymbolTableRecord
100
AcDbBlockTableRecord
  2
*MODEL_SPACE
  0
BLOCK_RECORD
  5
7
100
AcDbSymbolTableRecord
100
AcDbBlockTableRecord
  2
*PAPER_SPACE
  0
ENDTAB
  0
ENDSEC
  0
SECTION
  2
BLOCKS
  0
BLOCK
  5
3
100
AcDbEntity
  8
0
100
AcDbBlockBegin
  2
*MODEL_SPACE
 70
     0
 10
0.0
 20
0.0
 30
0.0
  3
*MODEL_SPACE
  1

  0
ENDBLK
  5
6
100
AcDbEntity
  8
0
100
AcDbBlockEnd
  0
BLOCK
  5
8
100
AcDbEntity
 67
     1
  8
0
100
AcDbBlockBegin
  2
*PAPER_SPACE
 70
     0
 10
0.0
 20
0.0
 30
0.0
  3
*PAPER_SPACE
  1

  0
ENDBLK
  5
9
100
AcDbEntity
 67
     1
  8
0
100
AcDbBlockEnd
  0
ENDSEC
  0
SECTION
  2
ENTITIES
  0
LINE
  5
3C
100
AcDbEntity
  8
DIM_GRIP
  6
BYBLOCK
100
AcDbLine
 10
287.564398
 20
182.817078
 30
0.0
 11
306.564398
 21
182.817078
 31
0.0
  0
TEXT
  5
3D
100
AcDbEntity
  8
DIM_GRIP
100
AcDbText
 10
287.322527
 20
178.490589
 30
0.0
 40
3.0
  1
=    =
  7
ROMANS
100
AcDbText
  0
LINE
  5
68
100
AcDbEntity
  8
GRIPPER
100
AcDbLine
 10
283.50683
 20
362.964361
 30
0.0
 11
310.621966
 21
362.964361
 31
0.0
  0
CIRCLE
  5
6A
100
AcDbEntity
  8
GRIPPER
100
AcDbCircle
 10
297.064398
 20
400.264361
 30
0.0
 40
32.5374
  0
LWPOLYLINE
  5
6B
100
AcDbEntity
  8
OUTLINE
100
AcDbPolyline
 90
        2
 70
     0
 43
1.0
 10
324.684095
 20
428.764361
 42
0.405055
 10
269.444701
 20
428.764361
 42
0.405055
  0
ARC
  5
6C
100
AcDbEntity
  8
GRIPPER
100
AcDbCircle
 10
297.064398
 20
400.264361
 30
0.0
 40
36.5125
100
AcDbArc
 50
207.080589
 51
154.676114
  0
LINE
  5
6D
100
AcDbEntity
  8
GRIPPER
100
AcDbLine
 10
297.064398
 20
352.464361
 30
0.0
 11
296.564398
 21
352.464361
 31
0.0
  0
LINE
  5
6E
100
AcDbEntity
  8
GRIPPER
100
AcDbLine
 10
303.464398
 20
359.464361
 30
0.0
 11
290.664398
 21
359.464361
 31
0.0
  0
LINE
  5
6F
100
AcDbEntity
  8
GRIPPER
100
AcDbLine
 10
303.464398
 20
360.964361
 30
0.0
 11
290.664398
 21
360.964361
 31
0.0
  0
LINE
  5
70
100
AcDbEntity
  8
GRIPPER
100
AcDbLine
 10
302.564398
 20
342.964361
 30
0.0
 11
291.564398
 21
342.964361
 31
0.0
  0
LINE
  5
71
100
AcDbEntity
  8
GRIPPER
100
AcDbLine
 10
302.564398
 20
344.964361
 30
0.0
 11
291.564398
 21
344.964361
 31
0.0
  0
LWPOLYLINE
  5
72
100
AcDbEntity
  8
OUTLINE
100
AcDbPolyline
 90
        2
 70
     0
 43
1.0
 10
291.564398
 20
342.964361
 10
302.564398
 20
342.964361
  0
LINE
  5
73
100
AcDbEntity
  8
GRIPPER
100
AcDbLine
 10
305.760522
 20
287.420809
 30
0.0
 11
288.368274
 21
287.420809
 31
0.0
  0
CIRCLE
  5
74
100
AcDbEntity
  8
GRIPPER
100
AcDbCircle
 10
297.064398
 20
287.420809
 30
0.0
 40
3.0
  0
LWPOLYLINE
  5
75
100
AcDbEntity
  8
GRIPPER
100
AcDbPolyline
 90
        6
 70
     1
 43
0.0
 10
297.064398
 20
293.420809
 10
291.868246
 20
290.420809
 10
291.868246
 20
284.420809
 10
297.064398
 20
281.420809
 10
302.26055
 20
284.420809
 10
302.26055
 20
290.420809
  0
CIRCLE
  5
76
100
AcDbEntity
  8
GRIPPER
100
AcDbCircle
 10
297.064398
 20
287.420809
 30
0.0
 40
6.4
  0
CIRCLE
  5
77
100
AcDbEntity
  8
GRIPPER
100
AcDbCircle
 10
297.064398
 20
287.420809
 30
0.0
 40
6.0
  0
LWPOLYLINE
  5
78
100
AcDbEntity
  8
GRIPPER
100
AcDbPolyline
 90
        7
 70
     0
 43
0.0
 10
283.504398
 20
293.627554
 42
0.074601
 10
286.548106
 20
286.967281
 42
0.10717
 10
291.742958
 20
281.831391
 42
0.142494
 10
297.064398
 20
280.283409
 42
0.142494
 10
302.385838
 20
281.831391
 42
0.10717
 10
307.58069
 20
286.967281
 42
0.074601
 10
310.624398
 20
293.627554
 42
0.066012
  0
CIRCLE
  5
79
100
AcDbEntity
  8
GRIPPER
100
AcDbCircle
 10
297.064398
 20
250.420809
 30
0.0
 40
3.0
  0
LINE
  5
7A
100
AcDbEntity
  8
GRIPPER
100
AcDbLine
 10
305.760522
 20
250.420809
 30
0.0
 11
288.368274
 21
250.420809
 31
0.0
  0
LWPOLYLINE
  5
7B
100
AcDbEntity
  8
GRIPPER
100
AcDbPolyline
 90
        6
 70
     1
 43
0.0
 10
297.064398
 20
256.420809
 10
291.868246
 20
253.420809
 10
291.868246
 20
247.420809
 10
297.064398
 20
244.420809
 10
302.26055
 20
247.420809
 10
302.26055
 20
253.420809
  0
CIRCLE
  5
7C
100
AcDbEntity
  8
GRIPPER
100
AcDbCircle
 10
297.064398
 20
250.420809
 30
0.0
 40
6.0
  0
CIRCLE
  5
7D
100
AcDbEntity
  8
GRIPPER
100
AcDbCircle
 10
297.064398
 20
250.420809
 30
0.0
 40
6.4
  0
LWPOLYLINE
  5
7E
100
AcDbEntity
  8
GRIPPER
100
AcDbPolyline
 90
        7
 70
     0
 43
0.0
 10
317.503953
 20
246.952259
 42
0.069607
 10
313.327854
 20
254.211183
 42
0.105488
 10
305.554569
 20
260.752482
 42
0.122951
 10
297.064398
 20
262.87227
 42
0.122951
 10
288.574226
 20
260.752482
 42
0.105488
 10
280.800942
 20
254.211183
 42
0.069607
 10
276.624843
 20
246.952259
 42
0.069607
  0
LINE
  5
80
100
AcDbEntity
  8
GRIPPER
100
AcDbLine
 10
297.064398
 20
298.546009
 30
0.0
 11
257.773773
 21
298.546009
 31
0.0
  0
LWPOLYLINE
  5
81
100
AcDbEntity
  8
OUTLINE
100
AcDbPolyline
 90
        2
 70
     0
 43
1.0
 10
309.564398
 20
208.212909
 10
284.564398
 20
208.212909
  0
LINE
  5
82
100
AcDbEntity
  8
GRIPPER
100
AcDbLine
 10
284.564398
 20
208.212909
 30
0.0
 11
309.564398
 21
208.212909
 31
0.0
  0
LWPOLYLINE
  5
83
100
AcDbEntity
  8
OUTLINE
100
AcDbPolyline
 90
        2
 70
     0
 43
1.0
 10
302.564398
 20
151.923474
 10
291.564398
 20
151.923474
  0
LINE
  5
84
100
AcDbEntity
  8
GRIPPER
100
AcDbLine
 10
291.564398
 20
151.923474
 30
0.0
 11
302.564398
 21
151.923474
 31
0.0
  0
LINE
  5
85
100
AcDbEntity
  8
GRIPPER
100
AcDbLine
 10
291.564398
 20
149.923474
 30
0.0
 11
302.564398
 21
149.923474
 31
0.0
  0
LINE
  5
86
100
AcDbEntity
  8
GRIPPER
100
AcDbLine
 10
296.564398
 20
133.623474
 30
0.0
 11
297.064398
 21
133.623474
 31
0.0
  0
LINE
  5
87
100
AcDbEntity
  8
GRIPPER
100
AcDbLine
 10
290.664398
 20
126.623474
 30
0.0
 11
303.464398
 21
126.623474
 31
0.0
  0
LINE
  5
88
100
AcDbEntity
  8
GRIPPER
100
AcDbLine
 10
291.564398
 20
141.123474
 30
0.0
 11
302.564398
 21
141.123474
 31
0.0
  0
LINE
  5
89
100
AcDbEntity
  8
GRIPPER
100
AcDbLine
 10
291.564398
 20
143.123474
 30
0.0
 11
302.564398
 21
143.123474
 31
0.0
  0
LINE
  5
8A
100
AcDbEntity
  8
GRIPPER
100
AcDbLine
 10
290.664398
 20
125.123474
 30
0.0
 11
303.464398
 21
125.123474
 31
0.0
  0
LINE
  5
8B
100
AcDbEntity
  8
GRIPPER
100
AcDbLine
 10
309.564398
 20
110.594474
 30
0.0
 11
284.564398
 21
110.594474
 31
0.0
  0
LINE
  5
8C
100
AcDbEntity
  8
GRIPPER
100
AcDbLine
 10
309.564398
 20
116.594474
 30
0.0
 11
284.564398
 21
116.594474
 31
0.0
  0
LINE
  5
8D
100
AcDbEntity
  8
GRIPPER
100
AcDbLine
 10
309.564398
 20
78.652474
 30
0.0
 11
284.564398
 21
78.652474
 31
0.0
  0
LINE
  5
8E
100
AcDbEntity
  8
GRIPPER
100
AcDbLine
 10
309.564398
 20
72.652474
 30
0.0
 11
284.564398
 21
72.652474
 31
0.0
  0
LWPOLYLINE
  5
8F
100
AcDbEntity
  8
OUTLINE
100
AcDbPolyline
 90
        2
 70
     0
 43
1.0
 10
269.444701
 20
66.123474
 42
0.405055
 10
324.684095
 20
66.123474
 42
0.405055
  0
ARC
  5
90
100
AcDbEntity
  8
GRIPPER
100
AcDbCircle
 10
297.064398
 20
94.623474
 30
0.0
 40
39.6875
100
AcDbArc
 50
225.898678
 51
314.101322
  0
LWPOLYLINE
  5
91
100
AcDbEntity
  8
OUTLINE
100
AcDbPolyline
 90
        2
 70
     0
 43
1.0
 10
257.773773
 20
298.546009
 10
336.355023
 20
298.546009
  0
LINE
  5
92
100
AcDbEntity
  8
GRIPPER
  6
CENTER2
100
AcDbLine
 10
358.546226
 20
94.623474
 30
0.0
 11
235.58257
 21
94.623474
 31
0.0
  0
LINE
  5
94
100
AcDbEntity
  8
GRIPPER
  6
CENTER2
100
AcDbLine
 10
358.546226
 20
400.264361
 30
0.0
 11
235.58257
 21
400.264361
 31
0.0
  0
LINE
  5
95
100
AcDbEntity
  8
GRIPPER
100
AcDbLine
 10
354.302398
 20
66.123474
 30
0.0
 11
239.826398
 21
66.123474
 31
0.0
  0
LINE
  5
96
100
AcDbEntity
  8
GRIPPER
100
AcDbLine
 10
354.302398
 20
123.123474
 30
0.0
 11
239.826398
 21
123.123474
 31
0.0
  0
LINE
  5
97
100
AcDbEntity
  8
GRIPPER
100
AcDbLine
 10
336.355023
 20
298.546009
 30
0.0
 11
257.773773
 21
298.546009
 31
0.0
  0
LINE
  5
98
100
AcDbEntity
  8
GRIPPER
100
AcDbLine
 10
259.715452
 20
280.283409
 30
0.0
 11
334.413344
 21
280.283409
 31
0.0
  0
ARC
  5
99
100
AcDbEntity
  8
GRIPPER
100
AcDbCircle
 10
297.064398
 20
400.264361
 30
0.0
 40
39.6875
100
AcDbArc
 50
289.974874
 51
148.962543
  0
LINE
  5
9A
100
AcDbEntity
  8
GRIPPER
100
AcDbLine
 10
239.064398
 20
220.034609
 30
0.0
 11
355.064398
 21
220.034609
 31
0.0
  0
LWPOLYLINE
  5
A8
100
AcDbEntity
  8
OUTLINE
100
AcDbPolyline
 90
        2
 70
     0
 43
1.0
 10
239.064398
 20
220.034609
 10
239.064398
 20
246.158509
  0
LINE
  5
A9
100
AcDbEntity
  8
GRIPPER
100
AcDbLine
 10
281.189398
 20
233.972109
 30
0.0
 11
281.189398
 21
237.220509
 31
0.0
  0
LINE
  5
AA
100
AcDbEntity
  8
GRIPPER
100
AcDbLine
 10
249.439398
 20
233.972109
 30
0.0
 11
249.439398
 21
237.195109
 31
0.0
  0
LINE
  5
AB
100
AcDbEntity
  8
GRIPPER
100
AcDbLine
 10
239.064398
 20
246.158509
 30
0.0
 11
239.064398
 21
220.034609
 31
0.0
  0
LWPOLYLINE
  5
BA
100
AcDbEntity
  8
OUTLINE
100
AcDbPolyline
 90
        2
 70
     0
 43
1.0
 10
239.064398
 20
122.623474
 10
239.064398
 20
66.623474
  0
LINE
  5
BB
100
AcDbEntity
  8
GRIPPER
100
AcDbLine
 10
280.717643
 20
89.060874
 30
0.0
 11
280.717643
 21
84.920674
 31
0.0
  0
LINE
  5
BC
100
AcDbEntity
  8
GRIPPER
100
AcDbLine
 10
284.564398
 20
66.623474
 30
0.0
 11
284.564398
 21
89.060874
 31
0.0
  0
LINE
  5
BD
100
AcDbEntity
  8
GRIPPER
100
AcDbLine
 10
239.064398
 20
122.361474
 30
0.0
 11
239.064398
 21
66.885474
 31
0.0
  0
LINE
  5
BE
100
AcDbEntity
  8
GRIPPER
100
AcDbLine
 10
240.114398
 20
67.023474
 30
0.0
 11
240.114398
 21
122.223474
 31
0.0
  0
ARC
  5
CC
100
AcDbEntity
  8
GRIPPER
100
AcDbCircle
 10
250.069398
 20
73.125874
 30
0.0
 40
2.5019
100
AcDbArc
 50
76.117643
 51
7.592753
  0
CIRCLE
  5
CD
100
AcDbEntity
  8
GRIPPER
100
AcDbCircle
 10
250.069398
 20
73.125874
 30
0.0
 40
1.9859
  0
LINE
  5
CE
100
AcDbEntity
  8
GRIPPER
100
AcDbLine
 10
246.257839
 20
73.125874
 30
0.0
 11
253.880957
 21
73.125874
 31
0.0
  0
CIRCLE
  5
CF
100
AcDbEntity
  8
GRIPPER
100
AcDbCircle
 10
250.069398
 20
73.125874
 30
0.0
 40
3.5
  0
LWPOLYLINE
  5
D0
100
AcDbEntity
  8
OUTLINE
100
AcDbPolyline
 90
        2
 70
     0
 43
1.0
 10
239.564398
 20
66.123474
 10
269.444701
 20
66.123474
  0
LINE
  5
D1
100
AcDbEntity
  8
GRIPPER
100
AcDbLine
 10
240.614398
 20
66.523474
 30
0.0
 11
284.564398
 21
66.523474
 31
0.0
  0
LINE
  5
D2
100
AcDbEntity
  8
GRIPPER
100
AcDbLine
 10
250.069398
 20
69.314314
 30
0.0
 11
250.069398
 21
76.937433
 31
0.0
  0
LWPOLYLINE
  5
D3
100
AcDbEntity
  8
OUTLINE
100
AcDbPolyline
 90
        2
 70
     0
 43
1.0
 10
239.064398
 20
66.623474
 10
239.564398
 20
66.123474
  0
LINE
  5
D4
100
AcDbEntity
  8
GRIPPER
100
AcDbLine
 10
239.064398
 20
66.885474
 30
0.0
 11
239.826398
 21
66.123474
 31
0.0
  0
LINE
  5
D5
100
AcDbEntity
  8
GRIPPER
100
AcDbLine
 10
240.114398
 20
67.023474
 30
0.0
 11
240.614398
 21
66.523474
 31
0.0
  0
LINE
  5
D6
100
AcDbEntity
  8
GRIPPER
100
AcDbLine
 10
240.114398
 20
72.652474
 30
0.0
 11
239.064398
 21
72.652474
 31
0.0
  0
LINE
  5
D7
100
AcDbEntity
  8
GRIPPER
100
AcDbLine
 10
240.114398
 20
78.652474
 30
0.0
 11
239.064398
 21
78.652474
 31
0.0
  0
CIRCLE
  5
E5
100
AcDbEntity
  8
GRIPPER
100
AcDbCircle
 10
275.039398
 20
73.125874
 30
0.0
 40
1.9859
  0
ARC
  5
E6
100
AcDbEntity
  8
GRIPPER
100
AcDbCircle
 10
275.039398
 20
73.125874
 30
0.0
 40
2.5019
100
AcDbArc
 50
76.117643
 51
7.592753
  0
LINE
  5
E7
100
AcDbEntity
  8
GRIPPER
100
AcDbLine
 10
271.227839
 20
73.125874
 30
0.0
 11
278.850957
 21
73.125874
 31
0.0
  0
CIRCLE
  5
E8
100
AcDbEntity
  8
GRIPPER
100
AcDbCircle
 10
275.039398
 20
73.125874
 30
0.0
 40
3.5
  0
LINE
  5
E9
100
AcDbEntity
  8
GRIPPER
100
AcDbLine
 10
262.569398
 20
69.314314
 30
0.0
 11
262.569398
 21
76.937433
 31
0.0
  0
CIRCLE
  5
EA
100
AcDbEntity
  8
GRIPPER
100
AcDbCircle
 10
262.569398
 20
73.125874
 30
0.0
 40
3.5
  0
LINE
  5
EB
100
AcDbEntity
  8
GRIPPER
100
AcDbLine
 10
258.757839
 20
73.125874
 30
0.0
 11
266.380957
 21
73.125874
 31
0.0
  0
ARC
  5
EC
100
AcDbEntity
  8
GRIPPER
100
AcDbCircle
 10
262.569398
 20
73.125874
 30
0.0
 40
2.5019
100
AcDbArc
 50
76.117643
 51
7.592753
  0
CIRCLE
  5
ED
100
AcDbEntity
  8
GRIPPER
100
AcDbCircle
 10
262.569398
 20
73.125874
 30
0.0
 40
1.9859
  0
LINE
  5
EE
100
AcDbEntity
  8
GRIPPER
100
AcDbLine
 10
275.039398
 20
69.314314
 30
0.0
 11
275.039398
 21
76.937433
 31
0.0
  0
LINE
  5
EF
100
AcDbEntity
  8
GRIPPER
100
AcDbLine
 10
280.717643
 20
84.920674
 30
0.0
 11
284.564398
 21
84.920674
 31
0.0
  0
LINE
  5
F0
100
AcDbEntity
  8
GRIPPER
100
AcDbLine
 10
246.257839
 20
116.121074
 30
0.0
 11
253.880957
 21
116.121074
 31
0.0
  0
CIRCLE
  5
F1
100
AcDbEntity
  8
GRIPPER
100
AcDbCircle
 10
250.069398
 20
116.121074
 30
0.0
 40
1.9859
  0
ARC
  5
F2
100
AcDbEntity
  8
GRIPPER
100
AcDbCircle
 10
250.069398
 20
116.121074
 30
0.0
 40
2.5019
100
AcDbArc
 50
76.117643
 51
7.592753
  0
CIRCLE
  5
F3
100
AcDbEntity
  8
GRIPPER
100
AcDbCircle
 10
250.069398
 20
116.121074
 30
0.0
 40
3.5
  0
LWPOLYLINE
  5
F4
100
AcDbEntity
  8
OUTLINE
100
AcDbPolyline
 90
        2
 70
     0
 43
1.0
 10
269.444701
 20
123.123474
 10
239.564398
 20
123.123474
  0
LINE
  5
F5
100
AcDbEntity
  8
GRIPPER
100
AcDbLine
 10
240.114398
 20
99.385974
 30
0.0
 11
279.798505
 21
99.385974
 31
0.0
  0
LINE
  5
F6
100
AcDbEntity
  8
GRIPPER
100
AcDbLine
 10
240.114398
 20
89.860974
 30
0.0
 11
279.798505
 21
89.860974
 31
0.0
  0
LINE
  5
F7
100
AcDbEntity
  8
GRIPPER
100
AcDbLine
 10
240.614398
 20
122.723474
 30
0.0
 11
284.564398
 21
122.723474
 31
0.0
  0
LWPOLYLINE
  5
F8
100
AcDbEntity
  8
OUTLINE
100
AcDbPolyline
 90
        2
 70
     0
 43
1.0
 10
239.564398
 20
123.123474
 10
239.064398
 20
122.623474
  0
LINE
  5
F9
100
AcDbEntity
  8
GRIPPER
100
AcDbLine
 10
250.069398
 20
112.309514
 30
0.0
 11
250.069398
 21
119.932633
 31
0.0
  0
LINE
  5
FA
100
AcDbEntity
  8
GRIPPER
100
AcDbLine
 10
240.114398
 20
110.594474
 30
0.0
 11
239.064398
 21
110.594474
 31
0.0
  0
LINE
  5
FB
100
AcDbEntity
  8
GRIPPER
100
AcDbLine
 10
239.064398
 20
122.361474
 30
0.0
 11
239.826398
 21
123.123474
 31
0.0
  0
LINE
  5
FC
100
AcDbEntity
  8
GRIPPER
100
AcDbLine
 10
240.114398
 20
122.223474
 30
0.0
 11
240.614398
 21
122.723474
 31
0.0
  0
LINE
  5
FD
100
AcDbEntity
  8
GRIPPER
100
AcDbLine
 10
240.114398
 20
116.594474
 30
0.0
 11
239.064398
 21
116.594474
 31
0.0
  0
LINE
  5
FE
100
AcDbEntity
  8
GRIPPER
100
AcDbLine
 10
290.664398
 20
123.123474
 30
0.0
 11
290.664398
 21
126.623474
 31
0.0
  0
LWPOLYLINE
  5
FF
100
AcDbEntity
  8
OUTLINE
100
AcDbPolyline
 90
        2
 70
     0
 43
1.0
 10
283.50683
 20
131.923474
 42
0.105662
 10
269.444701
 20
123.123474
 42
0.105662
  0
ARC
  5
100
100
AcDbEntity
  8
GRIPPER
100
AcDbCircle
 10
297.064398
 20
94.623474
 30
0.0
 40
39.6875
100
AcDbArc
 50
109.974874
 51
134.101322
  0
LINE
  5
101
100
AcDbEntity
  8
GRIPPER
100
AcDbLine
 10
271.227839
 20
116.121074
 30
0.0
 11
278.850957
 21
116.121074
 31
0.0
  0
ARC
  5
102
100
AcDbEntity
  8
GRIPPER
100
AcDbCircle
 10
275.039398
 20
116.121074
 30
0.0
 40
2.5019
100
AcDbArc
 50
76.117643
 51
7.592753
  0
CIRCLE
  5
103
100
AcDbEntity
  8
GRIPPER
100
AcDbCircle
 10
275.039398
 20
116.121074
 30
0.0
 40
1.9859
  0
CIRCLE
  5
104
100
AcDbEntity
  8
GRIPPER
100
AcDbCircle
 10
275.039398
 20
116.121074
 30
0.0
 40
3.5
  0
LINE
  5
105
100
AcDbEntity
  8
GRIPPER
100
AcDbLine
 10
258.757839
 20
116.121074
 30
0.0
 11
266.380957
 21
116.121074
 31
0.0
  0
CIRCLE
  5
106
100
AcDbEntity
  8
GRIPPER
100
AcDbCircle
 10
262.569398
 20
116.121074
 30
0.0
 40
1.9859
  0
ARC
  5
107
100
AcDbEntity
  8
GRIPPER
100
AcDbCircle
 10
262.569398
 20
116.121074
 30
0.0
 40
2.5019
100
AcDbArc
 50
76.117643
 51
7.592753
  0
CIRCLE
  5
108
100
AcDbEntity
  8
GRIPPER
100
AcDbCircle
 10
262.569398
 20
116.121074
 30
0.0
 40
3.5
  0
LINE
  5
109
100
AcDbEntity
  8
GRIPPER
100
AcDbLine
 10
262.569398
 20
112.309514
 30
0.0
 11
262.569398
 21
119.932633
 31
0.0
  0
LINE
  5
10A
100
AcDbEntity
  8
GRIPPER
100
AcDbLine
 10
284.564398
 20
100.186074
 30
0.0
 11
284.564398
 21
122.623474
 31
0.0
  0
LINE
  5
10B
100
AcDbEntity
  8
GRIPPER
100
AcDbLine
 10
277.65694
 20
89.860974
 30
0.0
 11
277.65694
 21
99.385974
 31
0.0
  0
LINE
  5
10C
100
AcDbEntity
  8
GRIPPER
100
AcDbLine
 10
279.798505
 20
89.060874
 30
0.0
 11
279.798505
 21
89.860974
 31
0.0
  0
LINE
  5
10D
100
AcDbEntity
  8
GRIPPER
100
AcDbLine
 10
284.564398
 20
89.060874
 30
0.0
 11
279.798505
 21
89.060874
 31
0.0
  0
LINE
  5
10E
100
AcDbEntity
  8
GRIPPER
100
AcDbLine
 10
279.798505
 20
100.186074
 30
0.0
 11
279.798505
 21
99.385974
 31
0.0
  0
LINE
  5
10F
100
AcDbEntity
  8
GRIPPER
100
AcDbLine
 10
280.717643
 20
100.186074
 30
0.0
 11
280.717643
 21
104.326274
 31
0.0
  0
LINE
  5
110
100
AcDbEntity
  8
GRIPPER
100
AcDbLine
 10
280.717643
 20
104.326274
 30
0.0
 11
284.564398
 21
104.326274
 31
0.0
  0
LINE
  5
111
100
AcDbEntity
  8
GRIPPER
100
AcDbLine
 10
284.564398
 20
100.186074
 30
0.0
 11
279.798505
 21
100.186074
 31
0.0
  0
LINE
  5
112
100
AcDbEntity
  8
GRIPPER
100
AcDbLine
 10
275.039398
 20
112.309514
 30
0.0
 11
275.039398
 21
119.932633
 31
0.0
  0
LWPOLYLINE
  5
113
100
AcDbEntity
  8
OUTLINE
100
AcDbPolyline
 90
        2
 70
     0
 43
1.0
 10
291.564398
 20
142.784558
 10
291.064398
 20
142.423474
  0
ARC
  5
114
100
AcDbEntity
  8
GRIPPER
100
AcDbCircle
 10
293.814398
 20
139.142224
 30
0.0
 40
4.28125
100
AcDbArc
 50
68.42344
 51
111.57656
  0
LWPOLYLINE
  5
115
100
AcDbEntity
  8
OUTLINE
100
AcDbPolyline
 90
        2
 70
     0
 43
1.0
 10
291.564398
 20
151.923474
 10
291.564398
 20
142.784558
  0
LINE
  5
116
100
AcDbEntity
  8
GRIPPER
100
AcDbLine
 10
291.564398
 20
142.784558
 30
0.0
 11
291.564398
 21
151.923474
 31
0.0
  0
LWPOLYLINE
  5
117
100
AcDbEntity
  8
OUTLINE
100
AcDbPolyline
 90
        2
 70
     0
 43
1.0
 10
290.664398
 20
131.923474
 10
283.50683
 20
131.923474
  0
LINE
  5
118
100
AcDbEntity
  8
GRIPPER
100
AcDbLine
 10
283.50683
 20
131.923474
 30
0.0
 11
291.064398
 21
131.923474
 31
0.0
  0
LWPOLYLINE
  5
119
100
AcDbEntity
  8
OUTLINE
100
AcDbPolyline
 90
        2
 70
     0
 43
1.0
 10
290.664398
 20
135.423474
 10
290.664398
 20
131.923474
  0
LINE
  5
11A
100
AcDbEntity
  8
GRIPPER
100
AcDbLine
 10
290.664398
 20
131.923474
 30
0.0
 11
290.664398
 21
135.423474
 31
0.0
  0
ARC
  5
11B
100
AcDbEntity
  8
GRIPPER
100
AcDbCircle
 10
293.814398
 20
130.342224
 30
0.0
 40
4.28125
100
AcDbArc
 50
50.033787
 51
129.966213
  0
LINE
  5
11C
100
AcDbEntity
  8
GRIPPER
100
AcDbLine
 10
290.664398
 20
133.923474
 30
0.0
 11
291.564398
 21
133.923474
 31
0.0
  0
LINE
  5
11D
100
AcDbEntity
  8
GRIPPER
100
AcDbLine
 10
290.664398
 20
131.923474
 30
0.0
 11
291.064398
 21
131.923474
 31
0.0
  0
LINE
  5
11E
100
AcDbEntity
  8
GRIPPER
100
AcDbLine
 10
291.064398
 20
126.623474
 30
0.0
 11
291.064398
 21
133.623474
 31
0.0
  0
LINE
  5
11F
100
AcDbEntity
  8
GRIPPER
100
AcDbLine
 10
296.564398
 20
126.623474
 30
0.0
 11
296.564398
 21
133.623474
 31
0.0
  0
LWPOLYLINE
  5
120
100
AcDbEntity
  8
OUTLINE
100
AcDbPolyline
 90
        2
 70
     0
 43
1.0
 10
291.064398
 20
142.423474
 10
291.064398
 20
135.423474
  0
ARC
  5
121
100
AcDbEntity
  8
GRIPPER
100
AcDbCircle
 10
293.814398
 20
139.142224
 30
0.0
 40
4.28125
100
AcDbArc
 50
121.705104
 51
129.966213
  0
LINE
  5
122
100
AcDbEntity
  8
GRIPPER
100
AcDbLine
 10
290.664398
 20
135.423474
 30
0.0
 11
291.564398
 21
135.423474
 31
0.0
  0
LINE
  5
123
100
AcDbEntity
  8
GRIPPER
100
AcDbLine
 10
291.064398
 20
135.423474
 30
0.0
 11
291.064398
 21
142.423474
 31
0.0
  0
LWPOLYLINE
  5
124
100
AcDbEntity
  8
GRIPPER
100
AcDbPolyline
 90
        2
 70
     0
 43
1.0
 10
291.064398
 20
135.423474
 10
290.664398
 20
135.423474
  0
LINE
  5
125
100
AcDbEntity
  8
GRIPPER
100
AcDbLine
 10
291.564398
 20
133.984558
 30
0.0
 11
291.564398
 21
143.123474
 31
0.0
  0
LINE
  5
126
100
AcDbEntity
  8
GRIPPER
100
AcDbLine
 10
246.439398
 20
227.972109
 30
0.0
 11
252.439398
 21
227.972109
 31
0.0
  0
LWPOLYLINE
  5
127
100
AcDbEntity
  8
GRIPPER
100
AcDbPolyline
 90
        6
 70
     1
 43
0.0
 10
250.305423
 20
226.472109
 10
251.171449
 20
227.972109
 10
250.305423
 20
229.472109
 10
248.573373
 20
229.472109
 10
247.707347
 20
227.972109
 10
248.573373
 20
226.472109
  0
CIRCLE
  5
128
100
AcDbEntity
  8
GRIPPER
100
AcDbCircle
 10
249.439398
 20
227.972109
 30
0.0
 40
5.6
  0
LWPOLYLINE
  5
129
100
AcDbEntity
  8
OUTLINE
100
AcDbPolyline
 90
        2
 70
     0
 43
1.0
 10
284.564398
 20
204.794609
 10
240.114398
 20
204.794609
  0
LINE
  5
12A
100
AcDbEntity
  8
GRIPPER
100
AcDbLine
 10
284.564398
 20
204.794609
 30
0.0
 11
240.114398
 21
204.794609
 31
0.0
  0
LWPOLYLINE
  5
12B
100
AcDbEntity
  8
OUTLINE
100
AcDbPolyline
 90
        2
 70
     0
 43
1.0
 10
240.114398
 20
204.794609
 10
240.114398
 20
220.034609
  0
LINE
  5
12C
100
AcDbEntity
  8
GRIPPER
100
AcDbLine
 10
240.114398
 20
204.794609
 30
0.0
 11
240.114398
 21
220.034609
 31
0.0
  0
LINE
  5
12D
100
AcDbEntity
  8
GRIPPER
100
AcDbLine
 10
249.439398
 20
224.972109
 30
0.0
 11
249.439398
 21
230.972109
 31
0.0
  0
LWPOLYLINE
  5
12E
100
AcDbEntity
  8
OUTLINE
100
AcDbPolyline
 90
        2
 70
     0
 43
1.0
 10
240.114398
 20
220.034609
 10
239.064398
 20
220.034609
  0
LINE
  5
12F
100
AcDbEntity
  8
GRIPPER
100
AcDbLine
 10
249.439398
 20
221.972109
 30
0.0
 11
249.439398
 21
218.749109
 31
0.0
  0
LINE
  5
130
100
AcDbEntity
  8
GRIPPER
100
AcDbLine
 10
243.439398
 20
227.972109
 30
0.0
 11
240.216398
 21
227.972109
 31
0.0
  0
LINE
  5
131
100
AcDbEntity
  8
DIM_GRIP
  6
BYBLOCK
100
AcDbLine
 10
284.564398
 20
203.794609
 30
0.0
 11
284.564398
 21
181.817078
 31
0.0
  0
SOLID
  5
132
100
AcDbEntity
  8
DIM_GRIP
  6
BYBLOCK
100
AcDbTrace
 10
287.564398
 20
183.317078
 30
0.0
 11
287.564398
 21
182.317078
 31
0.0
 12
284.564398
 22
182.817078
 32
0.0
 13
284.564398
 23
182.817078
 33
0.0
  0
LINE
  5
133
100
AcDbEntity
  8
GRIPPER
100
AcDbLine
 10
275.189398
 20
227.972109
 30
0.0
 11
271.940998
 21
227.972109
 31
0.0
  0
LINE
  5
134
100
AcDbEntity
  8
GRIPPER
100
AcDbLine
 10
255.439398
 20
227.972109
 30
0.0
 11
258.662398
 21
227.972109
 31
0.0
  0
LINE
  5
135
100
AcDbEntity
  8
GRIPPER
100
AcDbLine
 10
267.064398
 20
223.472109
 30
0.0
 11
267.064398
 21
232.472109
 31
0.0
  0
LWPOLYLINE
  5
136
100
AcDbEntity
  8
GRIPPER
100
AcDbPolyline
 90
        6
 70
     1
 43
0.0
 10
265.043672
 20
231.472109
 10
263.022946
 20
227.972109
 10
265.043672
 20
224.472109
 10
269.085124
 20
224.472109
 10
271.10585
 20
227.972109
 10
269.085124
 20
231.472109
  0
LINE
  5
137
100
AcDbEntity
  8
GRIPPER
100
AcDbLine
 10
271.564398
 20
227.972109
 30
0.0
 11
262.564398
 21
227.972109
 31
0.0
  0
LINE
  5
138
100
AcDbEntity
  8
GRIPPER
100
AcDbLine
 10
284.564398
 20
204.794609
 30
0.0
 11
284.564398
 21
220.034609
 31
0.0
  0
LWPOLYLINE
  5
139
100
AcDbEntity
  8
OUTLINE
100
AcDbPolyline
 90
        2
 70
     0
 43
1.0
 10
284.564398
 20
208.212909
 10
284.564398
 20
204.794609
  0
POINT
  5
13A
100
AcDbEntity
  8
DIM_GRIP
  6
BYBLOCK
100
AcDbPoint
 10
284.564398
 20
204.794609
 30
0.0
  0
CIRCLE
  5
13B
100
AcDbEntity
  8
GRIPPER
100
AcDbCircle
 10
281.189398
 20
227.972109
 30
0.0
 40
5.6
  0
LINE
  5
13C
100
AcDbEntity
  8
GRIPPER
100
AcDbLine
 10
281.189398
 20
224.972109
 30
0.0
 11
281.189398
 21
230.972109
 31
0.0
  0
LINE
  5
13D
100
AcDbEntity
  8
GRIPPER
100
AcDbLine
 10
281.189398
 20
221.972109
 30
0.0
 11
281.189398
 21
218.723709
 31
0.0
  0
LINE
  5
13E
100
AcDbEntity
  8
GRIPPER
100
AcDbLine
 10
278.189398
 20
227.972109
 30
0.0
 11
284.189398
 21
227.972109
 31
0.0
  0
LWPOLYLINE
  5
13F
100
AcDbEntity
  8
GRIPPER
100
AcDbPolyline
 90
        6
 70
     1
 43
0.0
 10
282.055423
 20
226.472109
 10
282.921449
 20
227.972109
 10
282.055423
 20
229.472109
 10
280.323373
 20
229.472109
 10
279.457347
 20
227.972109
 10
280.323373
 20
226.472109
  0
LINE
  5
140
100
AcDbEntity
  8
GRIPPER
100
AcDbLine
 10
287.189398
 20
227.972109
 30
0.0
 11
290.437798
 21
227.972109
 31
0.0
  0
LINE
  5
141
100
AcDbEntity
  8
GRIPPER
100
AcDbLine
 10
296.564398
 20
359.464361
 30
0.0
 11
296.564398
 21
352.464361
 31
0.0
  0
LWPOLYLINE
  5
142
100
AcDbEntity
  8
OUTLINE
100
AcDbPolyline
 90
        2
 70
     0
 43
1.0
 10
291.064398
 20
359.464361
 10
291.064398
 20
352.464361
  0
LINE
  5
143
100
AcDbEntity
  8
GRIPPER
100
AcDbLine
 10
291.064398
 20
359.464361
 30
0.0
 11
291.064398
 21
352.464361
 31
0.0
  0
LINE
  5
15F
100
AcDbEntity
  8
GRIPPER
100
AcDbLine
 10
261.714294
 20
246.952259
 30
0.0
 11
239.858148
 21
246.952259
 31
0.0
  0
LWPOLYLINE
  5
160
100
AcDbEntity
  8
OUTLINE
100
AcDbPolyline
 90
        2
 70
     0
 43
1.0
 10
239.064398
 20
246.158509
 10
239.858148
 20
246.952259
  0
LINE
  5
161
100
AcDbEntity
  8
GRIPPER
100
AcDbLine
 10
239.858148
 20
246.952259
 30
0.0
 11
239.064398
 21
246.158509
 31
0.0
  0
LWPOLYLINE
  5
162
100
AcDbEntity
  8
OUTLINE
100
AcDbPolyline
 90
        2
 70
     0
 43
1.0
 10
269.064398
 20
263.437123
 10
269.064398
 20
279.983409
  0
LINE
  5
163
100
AcDbEntity
  8
GRIPPER
100
AcDbLine
 10
269.064398
 20
263.437123
 30
0.0
 11
269.064398
 21
279.983409
 31
0.0
  0
LINE
  5
164
100
AcDbEntity
  8
GRIPPER
100
AcDbLine
 10
260.551898
 20
246.952259
 30
0.0
 11
276.624843
 21
246.952259
 31
0.0
  0
LWPOLYLINE
  5
165
100
AcDbEntity
  8
OUTLINE
100
AcDbPolyline
 90
        2
 70
     0
 43
1.0
 10
263.184141
 20
247.281249
 10
269.064398
 20
263.437123
  0
LINE
  5
166
100
AcDbEntity
  8
GRIPPER
100
AcDbLine
 10
263.184141
 20
247.281249
 30
0.0
 11
269.064398
 21
263.437123
 31
0.0
  0
ARC
  5
168
100
AcDbEntity
  8
GRIPPER
100
AcDbCircle
 10
262.714294
 20
247.452259
 30
0.0
 40
0.5
100
AcDbArc
 50
270.0
 51
340.0
  0
LINE
  5
169
100
AcDbEntity
  8
GRIPPER
100
AcDbLine
 10
264.579802
 20
298.149134
 30
0.0
 11
283.504398
 21
298.149134
 31
0.0
  0
LINE
  5
16A
100
AcDbEntity
  8
GRIPPER
100
AcDbLine
 10
264.579802
 20
293.546009
 30
0.0
 11
283.504398
 21
293.546009
 31
0.0
  0
LWPOLYLINE
  5
16B
100
AcDbEntity
  8
OUTLINE
100
AcDbPolyline
 90
        2
 70
     0
 43
1.0
 10
259.715452
 20
280.283409
 10
257.376898
 20
293.546009
  0
LINE
  5
16C
100
AcDbEntity
  8
GRIPPER
100
AcDbLine
 10
257.376898
 20
293.546009
 30
0.0
 11
259.715452
 21
280.283409
 31
0.0
  0
LINE
  5
16D
100
AcDbEntity
  8
GRIPPER
100
AcDbLine
 10
258.484722
 20
293.546009
 30
0.0
 11
260.745123
 21
280.283409
 31
0.0
  0
LINE
  5
16E
100
AcDbEntity
  8
GRIPPER
100
AcDbLine
 10
264.579802
 20
293.546009
 30
0.0
 11
266.138582
 21
280.283409
 31
0.0
  0
LWPOLYLINE
  5
16F
100
AcDbEntity
  8
OUTLINE
100
AcDbPolyline
 90
        2
 70
     0
 43
1.0
 10
268.764398
 20
280.283409
 10
259.715452
 20
280.283409
  0
LWPOLYLINE
  5
170
100
AcDbEntity
  8
OUTLINE
100
AcDbPolyline
 90
        2
 70
     0
 43
1.0
 10
269.064398
 20
279.983409
 10
268.764398
 20
280.283409
  0
ARC
  5
171
100
AcDbEntity
  8
GRIPPER
100
AcDbCircle
 10
268.764398
 20
279.983409
 30
0.0
 40
0.3
100
AcDbArc
 50
0.0
 51
90.0
  0
ARC
  5
172
100
AcDbEntity
  8
GRIPPER
100
AcDbCircle
 10
268.764398
 20
279.983409
 30
0.0
 40
0.3
100
AcDbArc
 50
0.0
 51
90.0
  0
LWPOLYLINE
  5
173
100
AcDbEntity
  8
OUTLINE
100
AcDbPolyline
 90
        2
 70
     0
 43
1.0
 10
257.376898
 20
293.546009
 10
257.376898
 20
298.149134
  0
LWPOLYLINE
  5
174
100
AcDbEntity
  8
OUTLINE
100
AcDbPolyline
 90
        2
 70
     0
 43
1.0
 10
257.376898
 20
298.149134
 10
257.773773
 20
298.546009
  0
LINE
  5
175
100
AcDbEntity
  8
GRIPPER
100
AcDbLine
 10
257.376898
 20
298.149134
 30
0.0
 11
257.376898
 21
293.546009
 31
0.0
  0
LINE
  5
176
100
AcDbEntity
  8
GRIPPER
100
AcDbLine
 10
258.484722
 20
298.149134
 30
0.0
 11
258.484722
 21
293.546009
 31
0.0
  0
LINE
  5
177
100
AcDbEntity
  8
GRIPPER
100
AcDbLine
 10
257.376898
 20
293.546009
 30
0.0
 11
258.484722
 21
293.546009
 31
0.0
  0
LINE
  5
178
100
AcDbEntity
  8
GRIPPER
100
AcDbLine
 10
257.376898
 20
298.149134
 30
0.0
 11
258.484722
 21
298.149134
 31
0.0
  0
LINE
  5
179
100
AcDbEntity
  8
GRIPPER
100
AcDbLine
 10
257.773773
 20
298.546009
 30
0.0
 11
257.376898
 21
298.149134
 31
0.0
  0
LINE
  5
17A
100
AcDbEntity
  8
GRIPPER
100
AcDbLine
 10
258.881597
 20
298.546009
 30
0.0
 11
258.484722
 21
298.149134
 31
0.0
  0
LINE
  5
17B
100
AcDbEntity
  8
GRIPPER
100
AcDbLine
 10
264.976677
 20
298.546009
 30
0.0
 11
264.579802
 21
298.149134
 31
0.0
  0
LINE
  5
17C
100
AcDbEntity
  8
GRIPPER
100
AcDbLine
 10
264.579802
 20
298.149134
 30
0.0
 11
264.579802
 21
293.546009
 31
0.0
  0
LINE
  5
17D
100
AcDbEntity
  8
GRIPPER
100
AcDbLine
 10
283.901273
 20
298.546009
 30
0.0
 11
283.504398
 21
298.149134
 31
0.0
  0
LINE
  5
17E
100
AcDbEntity
  8
GRIPPER
100
AcDbLine
 10
283.504398
 20
298.149134
 30
0.0
 11
283.504398
 21
293.546009
 31
0.0
  0
LWPOLYLINE
  5
17F
100
AcDbEntity
  8
OUTLINE
100
AcDbPolyline
 90
        2
 70
     0
 43
1.0
 10
291.564398
 20
352.103276
 10
291.564398
 20
342.964361
  0
LINE
  5
180
100
AcDbEntity
  8
GRIPPER
100
AcDbLine
 10
291.564398
 20
352.103276
 30
0.0
 11
291.564398
 21
342.964361
 31
0.0
  0
LWPOLYLINE
  5
181
100
AcDbEntity
  8
OUTLINE
100
AcDbPolyline
 90
        2
 70
     0
 43
1.0
 10
291.064398
 20
352.464361
 10
291.564398
 20
352.103276
  0
ARC
  5
182
100
AcDbEntity
  8
GRIPPER
100
AcDbCircle
 10
293.814398
 20
355.745611
 30
0.0
 40
4.28125
100
AcDbArc
 50
230.033787
 51
309.966213
  0
LWPOLYLINE
  5
187
100
AcDbEntity
  8
OUTLINE
100
AcDbPolyline
 90
        2
 70
     0
 43
1.0
 10
269.444701
 20
428.764361
 10
239.564398
 20
428.764361
  0
LINE
  5
188
100
AcDbEntity
  8
GRIPPER
100
AcDbLine
 10
239.564398
 20
428.764361
 30
0.0
 11
269.444701
 21
428.764361
 31
0.0
  0
LINE
  5
189
100
AcDbEntity
  8
GRIPPER
100
AcDbLine
 10
240.064398
 20
427.764361
 30
0.0
 11
262.564398
 21
427.764361
 31
0.0
  0
LWPOLYLINE
  5
18A
100
AcDbEntity
  8
OUTLINE
100
AcDbPolyline
 90
        2
 70
     0
 43
1.0
 10
239.564398
 20
371.764361
 10
269.444701
 20
371.764361
  0
LINE
  5
18B
100
AcDbEntity
  8
GRIPPER
100
AcDbLine
 10
239.564398
 20
371.764361
 30
0.0
 11
269.444701
 21
371.764361
 31
0.0
  0
LINE
  5
18C
100
AcDbEntity
  8
GRIPPER
100
AcDbLine
 10
240.064398
 20
372.764361
 30
0.0
 11
262.564398
 21
372.764361
 31
0.0
  0
LWPOLYLINE
  5
18E
100
AcDbEntity
  8
OUTLINE
100
AcDbPolyline
 90
        2
 70
     0
 43
1.0
 10
239.064398
 20
428.264361
 10
239.064398
 20
372.264361
  0
LINE
  5
18F
100
AcDbEntity
  8
GRIPPER
100
AcDbLine
 10
239.064398
 20
428.264361
 30
0.0
 11
239.064398
 21
372.264361
 31
0.0
  0
LINE
  5
190
100
AcDbEntity
  8
GRIPPER
100
AcDbLine
 10
239.564398
 20
427.264361
 30
0.0
 11
239.564398
 21
373.264361
 31
0.0
  0
LWPOLYLINE
  5
193
100
AcDbEntity
  8
OUTLINE
100
AcDbPolyline
 90
        2
 70
     0
 43
1.0
 10
239.064398
 20
372.264361
 10
239.564398
 20
371.764361
  0
LINE
  5
194
100
AcDbEntity
  8
GRIPPER
100
AcDbLine
 10
239.564398
 20
371.764361
 30
0.0
 11
239.064398
 21
372.264361
 31
0.0
  0
LINE
  5
195
100
AcDbEntity
  8
GRIPPER
100
AcDbLine
 10
240.064398
 20
372.764361
 30
0.0
 11
239.564398
 21
373.264361
 31
0.0
  0
LINE
  5
196
100
AcDbEntity
  8
GRIPPER
100
AcDbLine
 10
237.928474
 20
383.264361
 30
0.0
 11
248.700322
 21
383.264361
 31
0.0
  0
LINE
  5
197
100
AcDbEntity
  8
GRIPPER
100
AcDbLine
 10
243.314398
 20
388.650285
 30
0.0
 11
243.314398
 21
377.878437
 31
0.0
  0
CIRCLE
  5
198
100
AcDbEntity
  8
GRIPPER
100
AcDbCircle
 10
243.314398
 20
383.264361
 30
0.0
 40
3.75
  0
LWPOLYLINE
  5
199
100
AcDbEntity
  8
GRIPPER
100
AcDbPolyline
 90
        6
 70
     1
 43
0.0
 10
244.036086
 20
382.014361
 10
244.757774
 20
383.264361
 10
244.036086
 20
384.514361
 10
242.59271
 20
384.514361
 10
241.871022
 20
383.264361
 10
242.59271
 20
382.014361
  0
LINE
  5
19D
100
AcDbEntity
  8
GRIPPER
100
AcDbLine
 10
243.314398
 20
422.650285
 30
0.0
 11
243.314398
 21
411.878437
 31
0.0
  0
LWPOLYLINE
  5
19E
100
AcDbEntity
  8
OUTLINE
100
AcDbPolyline
 90
        2
 70
     0
 43
1.0
 10
239.564398
 20
428.764361
 10
239.064398
 20
428.264361
  0
LINE
  5
19F
100
AcDbEntity
  8
GRIPPER
100
AcDbLine
 10
237.928474
 20
417.264361
 30
0.0
 11
248.700322
 21
417.264361
 31
0.0
  0
CIRCLE
  5
1A0
100
AcDbEntity
  8
GRIPPER
100
AcDbCircle
 10
243.314398
 20
417.264361
 30
0.0
 40
3.75
  0
LWPOLYLINE
  5
1A1
100
AcDbEntity
  8
GRIPPER
100
AcDbPolyline
 90
        6
 70
     1
 43
0.0
 10
244.036086
 20
416.014361
 10
244.757774
 20
417.264361
 10
244.036086
 20
418.514361
 10
242.59271
 20
418.514361
 10
241.871022
 20
417.264361
 10
242.59271
 20
416.014361
  0
LINE
  5
1A2
100
AcDbEntity
  8
GRIPPER
100
AcDbLine
 10
239.064398
 20
428.264361
 30
0.0
 11
239.564398
 21
428.764361
 31
0.0
  0
LINE
  5
1A3
100
AcDbEntity
  8
GRIPPER
100
AcDbLine
 10
239.564398
 20
428.764361
 30
0.0
 11
239.064398
 21
428.264361
 31
0.0
  0
LINE
  5
1A4
100
AcDbEntity
  8
GRIPPER
100
AcDbLine
 10
240.064398
 20
427.764361
 30
0.0
 11
239.564398
 21
427.264361
 31
0.0
  0
CIRCLE
  5
1A5
100
AcDbEntity
  8
GRIPPER
100
AcDbCircle
 10
265.019331
 20
394.625561
 30
0.0
 40
2.799999
  0
LINE
  5
1A6
100
AcDbEntity
  8
GRIPPER
100
AcDbLine
 10
269.08696
 20
395.34132
 30
0.0
 11
260.099109
 21
393.759776
 31
0.0
  0
ARC
  5
1A7
100
AcDbEntity
  8
GRIPPER
100
AcDbCircle
 10
297.064398
 20
400.264361
 30
0.0
 40
36.5125
100
AcDbArc
 50
161.436727
 51
198.563273
  0
ARC
  5
1A8
100
AcDbEntity
  8
GRIPPER
100
AcDbCircle
 10
297.064398
 20
400.264361
 30
0.0
 40
39.6875
100
AcDbArc
 50
167.150298
 51
194.076054
  0
LWPOLYLINE
  5
1A9
100
AcDbEntity
  8
OUTLINE
100
AcDbPolyline
 90
        2
 70
     0
 43
1.0
 10
269.444701
 20
371.764361
 42
0.105662
 10
283.50683
 20
362.964361
 42
0.105662
  0
ARC
  5
1AA
100
AcDbEntity
  8
GRIPPER
100
AcDbCircle
 10
297.064398
 20
400.264361
 30
0.0
 40
39.6875
100
AcDbArc
 50
211.97493
 51
250.025126
  0
LINE
  5
1AB
100
AcDbEntity
  8
GRIPPER
100
AcDbLine
 10
263.064398
 20
387.764361
 30
0.0
 11
263.064398
 21
373.264361
 31
0.0
  0
LINE
  5
1AC
100
AcDbEntity
  8
GRIPPER
100
AcDbLine
 10
263.064398
 20
373.264361
 30
0.0
 11
262.564398
 21
372.764361
 31
0.0
  0
ARC
  5
1AD
100
AcDbEntity
  8
GRIPPER
100
AcDbCircle
 10
257.064398
 20
383.264361
 30
0.0
 40
7.5
100
AcDbArc
 50
327.620434
 51
78.43055
  0
LWPOLYLINE
  5
1AE
100
AcDbEntity
  8
OUTLINE
100
AcDbPolyline
 90
        2
 70
     0
 43
1.0
 10
290.664398
 20
362.964361
 10
283.50683
 20
362.964361
  0
CIRCLE
  5
1AF
100
AcDbEntity
  8
GRIPPER
100
AcDbCircle
 10
285.925208
 20
369.693119
 30
0.0
 40
2.799999
  0
LINE
  5
1B0
100
AcDbEntity
  8
GRIPPER
100
AcDbLine
 10
287.339157
 20
373.573668
 30
0.0
 11
284.21489
 21
364.999189
 31
0.0
  0
LWPOLYLINE
  5
1B3
100
AcDbEntity
  8
GRIPPER
100
AcDbPolyline
 90
        2
 70
     0
 43
1.0
 10
290.664398
 20
359.464361
 10
291.064398
 20
359.464361
  0
LWPOLYLINE
  5
1B4
100
AcDbEntity
  8
OUTLINE
100
AcDbPolyline
 90
        2
 70
     0
 43
1.0
 10
290.664398
 20
362.964361
 10
290.664398
 20
359.464361
  0
LINE
  5
1B5
100
AcDbEntity
  8
GRIPPER
100
AcDbLine
 10
290.664398
 20
362.964361
 30
0.0
 11
290.664398
 21
359.464361
 31
0.0
  0
LINE
  5
1B6
100
AcDbEntity
  8
GRIPPER
100
AcDbLine
 10
278.8122
 20
422.032013
 30
0.0
 11
272.948618
 21
429.024948
 31
0.0
  0
CIRCLE
  5
1B7
100
AcDbEntity
  8
GRIPPER
100
AcDbCircle
 10
276.15852
 20
425.196803
 30
0.0
 40
2.799999
  0
LINE
  5
1B8
100
AcDbEntity
  8
GRIPPER
100
AcDbLine
 10
263.064398
 20
412.764361
 30
0.0
 11
263.064398
 21
427.264361
 31
0.0
  0
ARC
  5
1B9
100
AcDbEntity
  8
GRIPPER
100
AcDbCircle
 10
256.109398
 20
416.764361
 30
0.0
 40
8.0
100
AcDbArc
 50
286.419936
 51
29.692905
  0
POINT
  5
1BA
100
AcDbEntity
  8
DIM_GRIP
  6
BYBLOCK
100
AcDbPoint
 10
257.4484
 20
402.645611
 30
0.0
  0
POINT
  5
1BB
100
AcDbEntity
  8
DIM_GRIP
  6
BYBLOCK
100
AcDbPoint
 10
257.4484
 20
397.883111
 30
0.0
  0
LINE
  5
1BC
100
AcDbEntity
  8
GRIPPER
100
AcDbLine
 10
257.4484
 20
402.645611
 30
0.0
 11
260.62963
 21
402.645611
 31
0.0
  0
LINE
  5
1BD
100
AcDbEntity
  8
GRIPPER
100
AcDbLine
 10
257.4484
 20
397.883111
 30
0.0
 11
260.62963
 21
397.883111
 31
0.0
  0
LINE
  5
1BE
100
AcDbEntity
  8
GRIPPER
100
AcDbLine
 10
263.064398
 20
427.264361
 30
0.0
 11
262.564398
 21
427.764361
 31
0.0
  0
LINE
  5
1CC
100
AcDbEntity
  8
GRIPPER
100
AcDbLine
 10
478.860005
 20
220.072109
 30
0.0
 11
478.860005
 21
235.872109
 31
0.0
  0
LINE
  5
1CD
100
AcDbEntity
  8
GRIPPER
100
AcDbLine
 10
447.460005
 20
220.072109
 30
0.0
 11
447.460005
 21
235.872109
 31
0.0
  0
LWPOLYLINE
  5
1CE
100
AcDbEntity
  8
OUTLINE
100
AcDbPolyline
 90
        2
 70
     0
 43
1.0
 10
355.064398
 20
246.158509
 10
355.064398
 20
220.034609
  0
LWPOLYLINE
  5
1CF
100
AcDbEntity
  8
OUTLINE
100
AcDbPolyline
 90
        2
 70
     0
 43
1.0
 10
491.660005
 20
262.063384
 10
491.660005
 20
231.476258
  0
LWPOLYLINE
  5
1D0
100
AcDbEntity
  8
OUTLINE
100
AcDbPolyline
 90
        2
 70
     0
 43
1.0
 10
434.660005
 20
231.476258
 10
434.660005
 20
243.886009
  0
LINE
  5
1D1
100
AcDbEntity
  8
GRIPPER
100
AcDbLine
 10
485.060005
 20
220.072109
 30
0.0
 11
485.060005
 21
240.672109
 31
0.0
  0
LINE
  5
1D2
100
AcDbEntity
  8
GRIPPER
100
AcDbLine
 10
441.260005
 20
220.072109
 30
0.0
 11
441.260005
 21
240.672109
 31
0.0
  0
LINE
  5
1D3
100
AcDbEntity
  8
GRIPPER
100
AcDbLine
 10
344.689398
 20
233.972109
 30
0.0
 11
344.689398
 21
237.195109
 31
0.0
  0
LINE
  5
1D4
100
AcDbEntity
  8
GRIPPER
  6
CENTER2
100
AcDbLine
 10
463.160005
 20
305.743591
 30
0.0
 11
463.160005
 21
201.578777
 31
0.0
  0
LINE
  5
1D5
100
AcDbEntity
  8
GRIPPER
100
AcDbLine
 10
355.064398
 20
246.158509
 30
0.0
 11
355.064398
 21
220.034609
 31
0.0
  0
LINE
  5
1D6
100
AcDbEntity
  8
GRIPPER
100
AcDbLine
 10
491.660005
 20
220.314009
 30
0.0
 11
491.660005
 21
262.063384
 31
0.0
  0
LINE
  5
1D7
100
AcDbEntity
  8
GRIPPER
100
AcDbLine
 10
480.755005
 20
244.352735
 30
0.0
 11
480.755005
 21
234.874793
 31
0.0
  0
LINE
  5
1D8
100
AcDbEntity
  8
GRIPPER
100
AcDbLine
 10
434.660005
 20
220.314009
 30
0.0
 11
434.660005
 21
262.063384
 31
0.0
  0
LINE
  5
1D9
100
AcDbEntity
  8
GRIPPER
100
AcDbLine
 10
445.565005
 20
244.352735
 30
0.0
 11
445.565005
 21
234.874793
 31
0.0
  0
LINE
  5
1DA
100
AcDbEntity
  8
GRIPPER
100
AcDbLine
 10
312.939398
 20
233.972109
 30
0.0
 11
312.939398
 21
237.220509
 31
0.0
  0
LINE
  5
1DB
100
AcDbEntity
  8
GRIPPER
  6
CENTER2
100
AcDbLine
 10
297.064398
 20
198.815866
 30
0.0
 11
297.064398
 21
305.771523
 31
0.0
  0
LWPOLYLINE
  5
1F8
100
AcDbEntity
  8
OUTLINE
100
AcDbPolyline
 90
        2
 70
     0
 43
1.0
 10
491.260005
 20
204.794609
 10
467.922505
 20
204.794609
  0
LINE
  5
1F9
100
AcDbEntity
  8
GRIPPER
100
AcDbLine
 10
498.90939
 20
227.972109
 30
0.0
 11
475.936005
 21
227.972109
 31
0.0
  0
LINE
  5
1FA
100
AcDbEntity
  8
GRIPPER
100
AcDbLine
 10
478.860005
 20
220.072109
 30
0.0
 11
491.260005
 21
220.072109
 31
0.0
  0
LINE
  5
1FB
100
AcDbEntity
  8
GRIPPER
100
AcDbLine
 10
467.922505
 20
204.794609
 30
0.0
 11
491.260005
 21
204.794609
 31
0.0
  0
LWPOLYLINE
  5
1FC
100
AcDbEntity
  8
OUTLINE
100
AcDbPolyline
 90
        2
 70
     0
 43
1.0
 10
355.064398
 20
66.623474
 10
355.064398
 20
122.623474
  0
LINE
  5
1FD
100
AcDbEntity
  8
GRIPPER
100
AcDbLine
 10
355.064398
 20
122.361474
 30
0.0
 11
355.064398
 21
66.885474
 31
0.0
  0
LINE
  5
1FE
100
AcDbEntity
  8
GRIPPER
100
AcDbLine
 10
354.014398
 20
67.023474
 30
0.0
 11
354.014398
 21
122.223474
 31
0.0
  0
LINE
  5
1FF
100
AcDbEntity
  8
GRIPPER
100
AcDbLine
 10
313.411153
 20
89.060874
 30
0.0
 11
313.411153
 21
84.920674
 31
0.0
  0
LINE
  5
200
100
AcDbEntity
  8
GRIPPER
100
AcDbLine
 10
309.564398
 20
66.623474
 30
0.0
 11
309.564398
 21
89.060874
 31
0.0
  0
LINE
  5
201
100
AcDbEntity
  8
GRIPPER
  6
CENTER2
100
AcDbLine
 10
297.064398
 20
48.532103
 30
0.0
 11
297.064398
 21
157.027681
 31
0.0
  0
ARC
  5
205
100
AcDbEntity
  8
GRIPPER
100
AcDbCircle
 10
344.059398
 20
73.125874
 30
0.0
 40
2.5019
100
AcDbArc
 50
76.117643
 51
7.592753
  0
CIRCLE
  5
206
100
AcDbEntity
  8
GRIPPER
100
AcDbCircle
 10
344.059398
 20
73.125874
 30
0.0
 40
1.9859
  0
LINE
  5
207
100
AcDbEntity
  8
GRIPPER
100
AcDbLine
 10
340.247839
 20
73.125874
 30
0.0
 11
347.870957
 21
73.125874
 31
0.0
  0
CIRCLE
  5
208
100
AcDbEntity
  8
GRIPPER
100
AcDbCircle
 10
344.059398
 20
73.125874
 30
0.0
 40
3.5
  0
LWPOLYLINE
  5
209
100
AcDbEntity
  8
OUTLINE
100
AcDbPolyline
 90
        2
 70
     0
 43
1.0
 10
324.684095
 20
66.123474
 10
354.564398
 20
66.123474
  0
LINE
  5
20A
100
AcDbEntity
  8
GRIPPER
100
AcDbLine
 10
353.514398
 20
66.523474
 30
0.0
 11
309.564398
 21
66.523474
 31
0.0
  0
CIRCLE
  5
20B
100
AcDbEntity
  8
GRIPPER
100
AcDbCircle
 10
319.089398
 20
73.125874
 30
0.0
 40
1.9859
  0
LINE
  5
20C
100
AcDbEntity
  8
GRIPPER
100
AcDbLine
 10
315.277839
 20
73.125874
 30
0.0
 11
322.900957
 21
73.125874
 31
0.0
  0
ARC
  5
20D
100
AcDbEntity
  8
GRIPPER
100
AcDbCircle
 10
319.089398
 20
73.125874
 30
0.0
 40
2.5019
100
AcDbArc
 50
76.117643
 51
7.592753
  0
CIRCLE
  5
20E
100
AcDbEntity
  8
GRIPPER
100
AcDbCircle
 10
319.089398
 20
73.125874
 30
0.0
 40
3.5
  0
LINE
  5
20F
100
AcDbEntity
  8
GRIPPER
100
AcDbLine
 10
319.089398
 20
69.314314
 30
0.0
 11
319.089398
 21
76.937433
 31
0.0
  0
LINE
  5
210
100
AcDbEntity
  8
GRIPPER
100
AcDbLine
 10
313.411153
 20
84.920674
 30
0.0
 11
309.564398
 21
84.920674
 31
0.0
  0
LINE
  5
211
100
AcDbEntity
  8
GRIPPER
100
AcDbLine
 10
331.589398
 20
69.314314
 30
0.0
 11
331.589398
 21
76.937433
 31
0.0
  0
CIRCLE
  5
212
100
AcDbEntity
  8
GRIPPER
100
AcDbCircle
 10
331.589398
 20
73.125874
 30
0.0
 40
3.5
  0
CIRCLE
  5
213
100
AcDbEntity
  8
GRIPPER
100
AcDbCircle
 10
331.589398
 20
73.125874
 30
0.0
 40
1.9859
  0
ARC
  5
214
100
AcDbEntity
  8
GRIPPER
100
AcDbCircle
 10
331.589398
 20
73.125874
 30
0.0
 40
2.5019
100
AcDbArc
 50
76.117643
 51
7.592753
  0
LINE
  5
215
100
AcDbEntity
  8
GRIPPER
100
AcDbLine
 10
327.777839
 20
73.125874
 30
0.0
 11
335.400957
 21
73.125874
 31
0.0
  0
LINE
  5
217
100
AcDbEntity
  8
GRIPPER
100
AcDbLine
 10
344.059398
 20
69.314314
 30
0.0
 11
344.059398
 21
76.937433
 31
0.0
  0
LWPOLYLINE
  5
218
100
AcDbEntity
  8
OUTLINE
100
AcDbPolyline
 90
        2
 70
     0
 43
1.0
 10
354.564398
 20
66.123474
 10
355.064398
 20
66.623474
  0
LINE
  5
219
100
AcDbEntity
  8
GRIPPER
100
AcDbLine
 10
354.302398
 20
66.123474
 30
0.0
 11
355.064398
 21
66.885474
 31
0.0
  0
LINE
  5
21A
100
AcDbEntity
  8
GRIPPER
100
AcDbLine
 10
354.014398
 20
67.023474
 30
0.0
 11
353.514398
 21
66.523474
 31
0.0
  0
LINE
  5
21B
100
AcDbEntity
  8
GRIPPER
100
AcDbLine
 10
354.014398
 20
78.652474
 30
0.0
 11
355.064398
 21
78.652474
 31
0.0
  0
LINE
  5
21C
100
AcDbEntity
  8
GRIPPER
100
AcDbLine
 10
354.014398
 20
72.652474
 30
0.0
 11
355.064398
 21
72.652474
 31
0.0
  0
CIRCLE
  5
21E
100
AcDbEntity
  8
GRIPPER
100
AcDbCircle
 10
344.059398
 20
116.121074
 30
0.0
 40
1.9859
  0
ARC
  5
21F
100
AcDbEntity
  8
GRIPPER
100
AcDbCircle
 10
344.059398
 20
116.121074
 30
0.0
 40
2.5019
100
AcDbArc
 50
76.117643
 51
7.592753
  0
LINE
  5
220
100
AcDbEntity
  8
GRIPPER
100
AcDbLine
 10
340.247839
 20
116.121074
 30
0.0
 11
347.870957
 21
116.121074
 31
0.0
  0
CIRCLE
  5
221
100
AcDbEntity
  8
GRIPPER
100
AcDbCircle
 10
344.059398
 20
116.121074
 30
0.0
 40
3.5
  0
LWPOLYLINE
  5
222
100
AcDbEntity
  8
OUTLINE
100
AcDbPolyline
 90
        2
 70
     0
 43
1.0
 10
354.564398
 20
123.123474
 10
324.684095
 20
123.123474
  0
LINE
  5
223
100
AcDbEntity
  8
GRIPPER
100
AcDbLine
 10
354.014398
 20
99.385974
 30
0.0
 11
314.330291
 21
99.385974
 31
0.0
  0
LINE
  5
224
100
AcDbEntity
  8
GRIPPER
100
AcDbLine
 10
353.514398
 20
122.723474
 30
0.0
 11
309.564398
 21
122.723474
 31
0.0
  0
LINE
  5
225
100
AcDbEntity
  8
GRIPPER
100
AcDbLine
 10
354.014398
 20
89.860974
 30
0.0
 11
314.330291
 21
89.860974
 31
0.0
  0
LWPOLYLINE
  5
226
100
AcDbEntity
  8
OUTLINE
100
AcDbPolyline
 90
        2
 70
     0
 43
1.0
 10
324.684095
 20
123.123474
 42
0.105662
 10
310.621966
 20
131.923474
 42
0.105662
  0
LINE
  5
227
100
AcDbEntity
  8
GRIPPER
100
AcDbLine
 10
303.464398
 20
123.123474
 30
0.0
 11
303.464398
 21
126.623474
 31
0.0
  0
ARC
  5
228
100
AcDbEntity
  8
GRIPPER
100
AcDbCircle
 10
297.064398
 20
94.623474
 30
0.0
 40
39.6875
100
AcDbArc
 50
45.898678
 51
70.025126
  0
CIRCLE
  5
229
100
AcDbEntity
  8
GRIPPER
100
AcDbCircle
 10
319.089398
 20
116.121074
 30
0.0
 40
1.9859
  0
ARC
  5
22A
100
AcDbEntity
  8
GRIPPER
100
AcDbCircle
 10
319.089398
 20
116.121074
 30
0.0
 40
2.5019
100
AcDbArc
 50
76.117643
 51
7.592753
  0
LINE
  5
22B
100
AcDbEntity
  8
GRIPPER
100
AcDbLine
 10
315.277839
 20
116.121074
 30
0.0
 11
322.900957
 21
116.121074
 31
0.0
  0
CIRCLE
  5
22C
100
AcDbEntity
  8
GRIPPER
100
AcDbCircle
 10
319.089398
 20
116.121074
 30
0.0
 40
3.5
  0
LINE
  5
22D
100
AcDbEntity
  8
GRIPPER
100
AcDbLine
 10
309.564398
 20
100.186074
 30
0.0
 11
309.564398
 21
122.623474
 31
0.0
  0
LINE
  5
22E
100
AcDbEntity
  8
GRIPPER
100
AcDbLine
 10
316.471856
 20
89.860974
 30
0.0
 11
316.471856
 21
99.385974
 31
0.0
  0
LINE
  5
22F
100
AcDbEntity
  8
GRIPPER
100
AcDbLine
 10
309.564398
 20
89.060874
 30
0.0
 11
314.330291
 21
89.060874
 31
0.0
  0
LINE
  5
230
100
AcDbEntity
  8
GRIPPER
100
AcDbLine
 10
314.330291
 20
89.060874
 30
0.0
 11
314.330291
 21
89.860974
 31
0.0
  0
LINE
  5
231
100
AcDbEntity
  8
GRIPPER
100
AcDbLine
 10
313.411153
 20
104.326274
 30
0.0
 11
309.564398
 21
104.326274
 31
0.0
  0
LINE
  5
232
100
AcDbEntity
  8
GRIPPER
100
AcDbLine
 10
309.564398
 20
100.186074
 30
0.0
 11
314.330291
 21
100.186074
 31
0.0
  0
LINE
  5
233
100
AcDbEntity
  8
GRIPPER
100
AcDbLine
 10
314.330291
 20
100.186074
 30
0.0
 11
314.330291
 21
99.385974
 31
0.0
  0
LINE
  5
234
100
AcDbEntity
  8
GRIPPER
100
AcDbLine
 10
313.411153
 20
100.186074
 30
0.0
 11
313.411153
 21
104.326274
 31
0.0
  0
LINE
  5
235
100
AcDbEntity
  8
GRIPPER
100
AcDbLine
 10
319.089398
 20
112.309514
 30
0.0
 11
319.089398
 21
119.932633
 31
0.0
  0
ARC
  5
236
100
AcDbEntity
  8
GRIPPER
100
AcDbCircle
 10
331.589398
 20
116.121074
 30
0.0
 40
2.5019
100
AcDbArc
 50
76.117643
 51
7.592753
  0
CIRCLE
  5
237
100
AcDbEntity
  8
GRIPPER
100
AcDbCircle
 10
331.589398
 20
116.121074
 30
0.0
 40
1.9859
  0
LINE
  5
238
100
AcDbEntity
  8
GRIPPER
100
AcDbLine
 10
327.777839
 20
116.121074
 30
0.0
 11
335.400957
 21
116.121074
 31
0.0
  0
CIRCLE
  5
239
100
AcDbEntity
  8
GRIPPER
100
AcDbCircle
 10
331.589398
 20
116.121074
 30
0.0
 40
3.5
  0
LINE
  5
23A
100
AcDbEntity
  8
GRIPPER
100
AcDbLine
 10
331.589398
 20
112.309514
 30
0.0
 11
331.589398
 21
119.932633
 31
0.0
  0
LWPOLYLINE
  5
23B
100
AcDbEntity
  8
OUTLINE
100
AcDbPolyline
 90
        2
 70
     0
 43
1.0
 10
303.064398
 20
142.423474
 10
302.564398
 20
142.784558
  0
ARC
  5
23C
100
AcDbEntity
  8
GRIPPER
100
AcDbCircle
 10
300.314398
 20
139.142224
 30
0.0
 40
4.28125
100
AcDbArc
 50
68.42344
 51
111.57656
  0
LWPOLYLINE
  5
23D
100
AcDbEntity
  8
OUTLINE
100
AcDbPolyline
 90
        2
 70
     0
 43
1.0
 10
302.564398
 20
142.784558
 10
302.564398
 20
151.923474
  0
LINE
  5
23E
100
AcDbEntity
  8
GRIPPER
100
AcDbLine
 10
302.564398
 20
142.784558
 30
0.0
 11
302.564398
 21
151.923474
 31
0.0
  0
LWPOLYLINE
  5
23F
100
AcDbEntity
  8
OUTLINE
100
AcDbPolyline
 90
        2
 70
     0
 43
1.0
 10
303.464398
 20
131.923474
 10
310.621966
 20
131.923474
  0
LINE
  5
240
100
AcDbEntity
  8
GRIPPER
100
AcDbLine
 10
310.621966
 20
131.923474
 30
0.0
 11
303.064398
 21
131.923474
 31
0.0
  0
ARC
  5
241
100
AcDbEntity
  8
GRIPPER
100
AcDbCircle
 10
300.314398
 20
130.342224
 30
0.0
 40
4.28125
100
AcDbArc
 50
50.033787
 51
129.966213
  0
LWPOLYLINE
  5
242
100
AcDbEntity
  8
OUTLINE
100
AcDbPolyline
 90
        2
 70
     0
 43
1.0
 10
303.464398
 20
131.923474
 10
303.464398
 20
135.423474
  0
LINE
  5
243
100
AcDbEntity
  8
GRIPPER
100
AcDbLine
 10
303.464398
 20
131.923474
 30
0.0
 11
303.464398
 21
135.423474
 31
0.0
  0
LINE
  5
244
100
AcDbEntity
  8
GRIPPER
100
AcDbLine
 10
302.564398
 20
133.923474
 30
0.0
 11
303.464398
 21
133.923474
 31
0.0
  0
LINE
  5
245
100
AcDbEntity
  8
GRIPPER
100
AcDbLine
 10
297.064398
 20
133.623474
 30
0.0
 11
297.564398
 21
133.623474
 31
0.0
  0
LINE
  5
246
100
AcDbEntity
  8
GRIPPER
100
AcDbLine
 10
297.564398
 20
126.623474
 30
0.0
 11
297.564398
 21
133.623474
 31
0.0
  0
LINE
  5
247
100
AcDbEntity
  8
GRIPPER
100
AcDbLine
 10
303.064398
 20
131.923474
 30
0.0
 11
303.464398
 21
131.923474
 31
0.0
  0
LINE
  5
248
100
AcDbEntity
  8
GRIPPER
100
AcDbLine
 10
303.064398
 20
126.623474
 30
0.0
 11
303.064398
 21
133.623474
 31
0.0
  0
LWPOLYLINE
  5
249
100
AcDbEntity
  8
OUTLINE
100
AcDbPolyline
 90
        2
 70
     0
 43
1.0
 10
303.064398
 20
135.423474
 10
303.064398
 20
142.423474
  0
ARC
  5
24A
100
AcDbEntity
  8
GRIPPER
100
AcDbCircle
 10
300.314398
 20
139.142224
 30
0.0
 40
4.28125
100
AcDbArc
 50
50.033787
 51
58.294896
  0
LINE
  5
24B
100
AcDbEntity
  8
GRIPPER
100
AcDbLine
 10
302.564398
 20
135.423474
 30
0.0
 11
303.464398
 21
135.423474
 31
0.0
  0
LINE
  5
24C
100
AcDbEntity
  8
GRIPPER
100
AcDbLine
 10
302.564398
 20
133.984558
 30
0.0
 11
302.564398
 21
143.123474
 31
0.0
  0
LINE
  5
24D
100
AcDbEntity
  8
GRIPPER
100
AcDbLine
 10
303.064398
 20
135.423474
 30
0.0
 11
303.064398
 21
142.423474
 31
0.0
  0
LWPOLYLINE
  5
24E
100
AcDbEntity
  8
GRIPPER
100
AcDbPolyline
 90
        2
 70
     0
 43
1.0
 10
303.464398
 20
135.423474
 10
303.064398
 20
135.423474
  0
POINT
  5
24F
100
AcDbEntity
  8
DIM_GRIP
  6
BYBLOCK
100
AcDbPoint
 10
354.014398
 20
89.860974
 30
0.0
  0
POINT
  5
250
100
AcDbEntity
  8
DIM_GRIP
  6
BYBLOCK
100
AcDbPoint
 10
354.014398
 20
99.385974
 30
0.0
  0
LWPOLYLINE
  5
251
100
AcDbEntity
  8
OUTLINE
100
AcDbPolyline
 90
        2
 70
     0
 43
1.0
 10
355.064398
 20
122.623474
 10
354.564398
 20
123.123474
  0
LINE
  5
252
100
AcDbEntity
  8
GRIPPER
100
AcDbLine
 10
354.014398
 20
116.594474
 30
0.0
 11
355.064398
 21
116.594474
 31
0.0
  0
LINE
  5
253
100
AcDbEntity
  8
GRIPPER
100
AcDbLine
 10
354.302398
 20
123.123474
 30
0.0
 11
355.064398
 21
122.361474
 31
0.0
  0
LINE
  5
254
100
AcDbEntity
  8
GRIPPER
100
AcDbLine
 10
354.014398
 20
110.594474
 30
0.0
 11
355.064398
 21
110.594474
 31
0.0
  0
LINE
  5
255
100
AcDbEntity
  8
GRIPPER
100
AcDbLine
 10
344.059398
 20
112.309514
 30
0.0
 11
344.059398
 21
119.932633
 31
0.0
  0
LINE
  5
256
100
AcDbEntity
  8
GRIPPER
100
AcDbLine
 10
344.059398
 20
112.309514
 30
0.0
 11
344.059398
 21
119.932633
 31
0.0
  0
LINE
  5
257
100
AcDbEntity
  8
GRIPPER
100
AcDbLine
 10
353.514398
 20
122.723474
 30
0.0
 11
354.014398
 21
122.223474
 31
0.0
  0
LWPOLYLINE
  5
258
100
AcDbEntity
  8
GRIPPER
100
AcDbPolyline
 90
        6
 70
     1
 43
0.0
 10
345.555423
 20
226.472109
 10
346.421449
 20
227.972109
 10
345.555423
 20
229.472109
 10
343.823373
 20
229.472109
 10
342.957347
 20
227.972109
 10
343.823373
 20
226.472109
  0
LINE
  5
259
100
AcDbEntity
  8
GRIPPER
100
AcDbLine
 10
347.689398
 20
227.972109
 30
0.0
 11
341.689398
 21
227.972109
 31
0.0
  0
CIRCLE
  5
25A
100
AcDbEntity
  8
GRIPPER
100
AcDbCircle
 10
344.689398
 20
227.972109
 30
0.0
 40
5.6
  0
LWPOLYLINE
  5
25B
100
AcDbEntity
  8
OUTLINE
100
AcDbPolyline
 90
        2
 70
     0
 43
1.0
 10
354.014398
 20
204.794609
 10
309.564398
 20
204.794609
  0
LINE
  5
25C
100
AcDbEntity
  8
GRIPPER
100
AcDbLine
 10
309.564398
 20
204.794609
 30
0.0
 11
354.014398
 21
204.794609
 31
0.0
  0
LINE
  5
25D
100
AcDbEntity
  8
DIM_GRIP
  6
BYBLOCK
100
AcDbLine
 10
309.564398
 20
203.794609
 30
0.0
 11
309.564398
 21
181.817078
 31
0.0
  0
MTEXT
  5
25E
100
AcDbEntity
  8
DIM_GRIP
  6
BYBLOCK
100
AcDbMText
 10
325.976273
 20
186.309626
 30
0.0
 40
3.0
 41
0.0
 71
     5
 72
     1
  1
\A1;25 STROKE
  7
ROMANS
  0
LINE
  5
25F
100
AcDbEntity
  8
DIM_GRIP
  6
BYBLOCK
100
AcDbLine
 10
312.564398
 20
182.817078
 30
0.0
 11
339.054842
 21
182.817078
 31
0.0
  0
SOLID
  5
260
100
AcDbEntity
  8
DIM_GRIP
  6
BYBLOCK
100
AcDbTrace
 10
306.564398
 20
183.317078
 30
0.0
 11
306.564398
 21
182.317078
 31
0.0
 12
309.564398
 22
182.817078
 32
0.0
 13
309.564398
 23
182.817078
 33
0.0
  0
POINT
  5
261
100
AcDbEntity
  8
DIM_GRIP
  6
BYBLOCK
100
AcDbPoint
 10
309.564398
 20
182.817078
 30
0.0
  0
SOLID
  5
262
100
AcDbEntity
  8
DIM_GRIP
  6
BYBLOCK
100
AcDbTrace
 10
312.564398
 20
183.317078
 30
0.0
 11
312.564398
 21
182.317078
 31
0.0
 12
309.564398
 22
182.817078
 32
0.0
 13
309.564398
 23
182.817078
 33
0.0
  0
LINE
  5
263
100
AcDbEntity
  8
GRIPPER
100
AcDbLine
 10
318.939398
 20
227.972109
 30
0.0
 11
322.187798
 21
227.972109
 31
0.0
  0
LINE
  5
264
100
AcDbEntity
  8
GRIPPER
100
AcDbLine
 10
309.564398
 20
204.794609
 30
0.0
 11
309.564398
 21
220.034609
 31
0.0
  0
LWPOLYLINE
  5
265
100
AcDbEntity
  8
OUTLINE
100
AcDbPolyline
 90
        2
 70
     0
 43
1.0
 10
309.564398
 20
204.794609
 10
309.564398
 20
208.212909
  0
POINT
  5
266
100
AcDbEntity
  8
DIM_GRIP
  6
BYBLOCK
100
AcDbPoint
 10
309.564398
 20
204.794609
 30
0.0
  0
CIRCLE
  5
267
100
AcDbEntity
  8
GRIPPER
100
AcDbCircle
 10
312.939398
 20
227.972109
 30
0.0
 40
5.6
  0
LINE
  5
268
100
AcDbEntity
  8
GRIPPER
100
AcDbLine
 10
306.939398
 20
227.972109
 30
0.0
 11
303.690998
 21
227.972109
 31
0.0
  0
LINE
  5
269
100
AcDbEntity
  8
GRIPPER
100
AcDbLine
 10
312.939398
 20
224.972109
 30
0.0
 11
312.939398
 21
230.972109
 31
0.0
  0
LINE
  5
26A
100
AcDbEntity
  8
GRIPPER
100
AcDbLine
 10
312.939398
 20
221.972109
 30
0.0
 11
312.939398
 21
218.723709
 31
0.0
  0
LINE
  5
26B
100
AcDbEntity
  8
GRIPPER
100
AcDbLine
 10
315.939398
 20
227.972109
 30
0.0
 11
309.939398
 21
227.972109
 31
0.0
  0
LWPOLYLINE
  5
26C
100
AcDbEntity
  8
GRIPPER
100
AcDbPolyline
 90
        6
 70
     1
 43
0.0
 10
313.805423
 20
226.472109
 10
314.671449
 20
227.972109
 10
313.805423
 20
229.472109
 10
312.073373
 20
229.472109
 10
311.207347
 20
227.972109
 10
312.073373
 20
226.472109
  0
LWPOLYLINE
  5
26D
100
AcDbEntity
  8
GRIPPER
100
AcDbPolyline
 90
        6
 70
     1
 43
0.0
 10
325.043672
 20
231.472109
 10
323.022946
 20
227.972109
 10
325.043672
 20
224.472109
 10
329.085124
 20
224.472109
 10
331.10585
 20
227.972109
 10
329.085124
 20
231.472109
  0
LINE
  5
26E
100
AcDbEntity
  8
GRIPPER
100
AcDbLine
 10
327.064398
 20
223.472109
 30
0.0
 11
327.064398
 21
232.472109
 31
0.0
  0
LINE
  5
26F
100
AcDbEntity
  8
GRIPPER
100
AcDbLine
 10
322.564398
 20
227.972109
 30
0.0
 11
331.564398
 21
227.972109
 31
0.0
  0
LINE
  5
270
100
AcDbEntity
  8
GRIPPER
100
AcDbLine
 10
338.689398
 20
227.972109
 30
0.0
 11
335.466398
 21
227.972109
 31
0.0
  0
LWPOLYLINE
  5
271
100
AcDbEntity
  8
OUTLINE
100
AcDbPolyline
 90
        2
 70
     0
 43
1.0
 10
354.014398
 20
220.034609
 10
354.014398
 20
204.794609
  0
LINE
  5
272
100
AcDbEntity
  8
GRIPPER
100
AcDbLine
 10
354.014398
 20
204.794609
 30
0.0
 11
354.014398
 21
220.034609
 31
0.0
  0
LWPOLYLINE
  5
273
100
AcDbEntity
  8
OUTLINE
100
AcDbPolyline
 90
        2
 70
     0
 43
1.0
 10
355.064398
 20
220.034609
 10
354.014398
 20
220.034609
  0
LINE
  5
274
100
AcDbEntity
  8
GRIPPER
100
AcDbLine
 10
344.689398
 20
224.972109
 30
0.0
 11
344.689398
 21
230.972109
 31
0.0
  0
LINE
  5
275
100
AcDbEntity
  8
GRIPPER
100
AcDbLine
 10
344.689398
 20
221.972109
 30
0.0
 11
344.689398
 21
218.749109
 31
0.0
  0
LINE
  5
276
100
AcDbEntity
  8
GRIPPER
100
AcDbLine
 10
350.689398
 20
227.972109
 30
0.0
 11
353.912398
 21
227.972109
 31
0.0
  0
LWPOLYLINE
  5
277
100
AcDbEntity
  8
OUTLINE
100
AcDbPolyline
 90
        2
 70
     0
 43
1.0
 10
458.397505
 20
204.794609
 10
435.060005
 20
204.794609
  0
LINE
  5
278
100
AcDbEntity
  8
GRIPPER
100
AcDbLine
 10
458.397505
 20
204.794609
 30
0.0
 11
435.060005
 21
204.794609
 31
0.0
  0
LINE
  5
279
100
AcDbEntity
  8
GRIPPER
100
AcDbLine
 10
447.460005
 20
220.072109
 30
0.0
 11
435.060005
 21
220.072109
 31
0.0
  0
LINE
  5
27A
100
AcDbEntity
  8
GRIPPER
100
AcDbLine
 10
426.388491
 20
227.972109
 30
0.0
 11
450.384006
 21
227.972109
 31
0.0
  0
LWPOLYLINE
  5
27C
100
AcDbEntity
  8
OUTLINE
100
AcDbPolyline
 90
        2
 70
     0
 43
1.0
 10
435.060005
 20
204.794609
 10
435.060005
 20
220.314009
  0
LINE
  5
27D
100
AcDbEntity
  8
GRIPPER
100
AcDbLine
 10
435.060005
 20
204.794609
 30
0.0
 11
435.060005
 21
220.072109
 31
0.0
  0
LWPOLYLINE
  5
27F
100
AcDbEntity
  8
OUTLINE
100
AcDbPolyline
 90
        2
 70
     0
 43
1.0
 10
431.699942
 20
224.46796
 10
431.176431
 20
226.220034
  0
ARC
  5
280
100
AcDbEntity
  8
GRIPPER
100
AcDbCircle
 10
434.370091
 20
226.220034
 30
0.0
 40
3.19366
100
AcDbArc
 50
146.728274
 51
213.271726
  0
LINE
  5
281
100
AcDbEntity
  8
GRIPPER
100
AcDbLine
 10
434.660005
 20
231.476258
 30
0.0
 11
434.660005
 21
224.46796
 31
0.0
  0
LWPOLYLINE
  5
282
100
AcDbEntity
  8
GRIPPER
100
AcDbPolyline
 90
        2
 70
     0
 43
1.0
 10
434.660005
 20
220.314009
 10
435.060005
 20
220.314009
  0
LWPOLYLINE
  5
283
100
AcDbEntity
  8
OUTLINE
100
AcDbPolyline
 90
        2
 70
     0
 43
1.0
 10
434.660005
 20
220.314009
 10
434.660005
 20
224.46796
  0
LWPOLYLINE
  5
284
100
AcDbEntity
  8
OUTLINE
100
AcDbPolyline
 90
        2
 70
     0
 43
1.0
 10
434.660005
 20
224.46796
 10
431.699942
 20
224.46796
  0
LINE
  5
285
100
AcDbEntity
  8
GRIPPER
100
AcDbLine
 10
431.699942
 20
224.46796
 30
0.0
 11
434.660005
 21
224.46796
 31
0.0
  0
LWPOLYLINE
  5
286
100
AcDbEntity
  8
OUTLINE
100
AcDbPolyline
 90
        2
 70
     0
 43
1.0
 10
431.176431
 20
229.724183
 10
431.699942
 20
231.476258
  0
ARC
  5
287
100
AcDbEntity
  8
GRIPPER
100
AcDbCircle
 10
434.370091
 20
229.724183
 30
0.0
 40
3.19366
100
AcDbArc
 50
146.728274
 51
213.271726
  0
LWPOLYLINE
  5
288
100
AcDbEntity
  8
OUTLINE
100
AcDbPolyline
 90
        2
 70
     0
 43
1.0
 10
431.699942
 20
231.476258
 10
434.660005
 20
231.476258
  0
LINE
  5
289
100
AcDbEntity
  8
GRIPPER
100
AcDbLine
 10
431.699942
 20
231.476258
 30
0.0
 11
434.660005
 21
231.476258
 31
0.0
  0
LINE
  5
28A
100
AcDbEntity
  8
GRIPPER
100
AcDbLine
 10
431.699942
 20
227.972109
 30
0.0
 11
434.660005
 21
227.972109
 31
0.0
  0
LWPOLYLINE
  5
28B
100
AcDbEntity
  8
OUTLINE
100
AcDbPolyline
 90
        2
 70
     0
 43
1.0
 10
431.176431
 20
226.220034
 10
431.176431
 20
229.724183
  0
LINE
  5
28C
100
AcDbEntity
  8
GRIPPER
100
AcDbLine
 10
431.191797
 20
230.037091
 30
0.0
 11
431.191797
 21
225.907127
 31
0.0
  0
LINE
  5
298
100
AcDbEntity
  8
GRIPPER
100
AcDbLine
 10
463.160005
 20
207.969609
 30
0.0
 11
458.397505
 21
207.969609
 31
0.0
  0
LWPOLYLINE
  5
299
100
AcDbEntity
  8
OUTLINE
100
AcDbPolyline
 90
        2
 70
     0
 43
1.0
 10
467.922505
 20
207.969609
 10
458.397505
 20
207.969609
  0
CIRCLE
  5
29A
100
AcDbEntity
  8
GRIPPER
100
AcDbCircle
 10
463.123105
 20
227.972109
 30
0.0
 40
5.000136
  0
CIRCLE
  5
29B
100
AcDbEntity
  8
GRIPPER
100
AcDbCircle
 10
463.123105
 20
227.972109
 30
0.0
 40
6.000113
  0
LINE
  5
29C
100
AcDbEntity
  8
GRIPPER
100
AcDbLine
 10
458.397505
 20
207.969609
 30
0.0
 11
458.397505
 21
204.794609
 31
0.0
  0
LWPOLYLINE
  5
29D
100
AcDbEntity
  8
OUTLINE
100
AcDbPolyline
 90
        2
 70
     0
 43
1.0
 10
458.397505
 20
207.969609
 10
458.397505
 20
204.794609
  0
POINT
  5
29E
100
AcDbEntity
  8
GRIPPER
  6
BYBLOCK
100
AcDbPoint
 10
458.397505
 20
204.794609
 30
0.0
  0
LINE
  5
29F
100
AcDbEntity
  8
GRIPPER
100
AcDbLine
 10
447.460005
 20
220.572109
 30
0.0
 11
446.960005
 21
220.072109
 31
0.0
  0
LWPOLYLINE
  5
2A0
100
AcDbEntity
  8
OUTLINE
100
AcDbPolyline
 90
        2
 70
     0
 43
1.0
 10
467.922505
 20
204.794609
 10
467.922505
 20
207.969609
  0
LINE
  5
2A1
100
AcDbEntity
  8
GRIPPER
100
AcDbLine
 10
467.922505
 20
207.969609
 30
0.0
 11
467.922505
 21
204.794609
 31
0.0
  0
POINT
  5
2A2
100
AcDbEntity
  8
GRIPPER
  6
BYBLOCK
100
AcDbPoint
 10
467.922505
 20
204.794609
 30
0.0
  0
LINE
  5
2A3
100
AcDbEntity
  8
GRIPPER
100
AcDbLine
 10
463.160005
 20
207.969609
 30
0.0
 11
467.922505
 21
207.969609
 31
0.0
  0
LINE
  5
2A4
100
AcDbEntity
  8
GRIPPER
100
AcDbLine
 10
469.885005
 20
227.972109
 30
0.0
 11
463.123105
 21
227.972109
 31
0.0
  0
LINE
  5
2A5
100
AcDbEntity
  8
GRIPPER
100
AcDbLine
 10
478.860005
 20
220.572109
 30
0.0
 11
479.360005
 21
220.072109
 31
0.0
  0
LINE
  5
2A6
100
AcDbEntity
  8
GRIPPER
100
AcDbLine
 10
491.260005
 20
204.794609
 30
0.0
 11
491.260005
 21
220.072109
 31
0.0
  0
LWPOLYLINE
  5
2A7
100
AcDbEntity
  8
OUTLINE
100
AcDbPolyline
 90
        2
 70
     0
 43
1.0
 10
491.260005
 20
220.314009
 10
491.260005
 20
204.794609
  0
LWPOLYLINE
  5
2A8
100
AcDbEntity
  8
OUTLINE
100
AcDbPolyline
 90
        2
 70
     0
 43
1.0
 10
491.660005
 20
231.476258
 10
494.620069
 20
231.476258
  0
LWPOLYLINE
  5
2A9
100
AcDbEntity
  8
OUTLINE
100
AcDbPolyline
 90
        2
 70
     0
 43
1.0
 10
494.620069
 20
231.476258
 10
495.143579
 20
229.724183
  0
LINE
  5
2AA
100
AcDbEntity
  8
GRIPPER
100
AcDbLine
 10
494.620069
 20
231.476258
 30
0.0
 11
491.660005
 21
231.476258
 31
0.0
  0
LINE
  5
2AB
100
AcDbEntity
  8
GRIPPER
100
AcDbLine
 10
494.620069
 20
227.972109
 30
0.0
 11
491.660005
 21
227.972109
 31
0.0
  0
LWPOLYLINE
  5
2AC
100
AcDbEntity
  8
OUTLINE
100
AcDbPolyline
 90
        2
 70
     0
 43
1.0
 10
494.620069
 20
224.46796
 10
491.660005
 20
224.46796
  0
LWPOLYLINE
  5
2AD
100
AcDbEntity
  8
OUTLINE
100
AcDbPolyline
 90
        2
 70
     0
 43
1.0
 10
495.143579
 20
226.220034
 10
494.620069
 20
224.46796
  0
LINE
  5
2AE
100
AcDbEntity
  8
GRIPPER
100
AcDbLine
 10
494.620069
 20
224.46796
 30
0.0
 11
491.660005
 21
224.46796
 31
0.0
  0
LINE
  5
2AF
100
AcDbEntity
  8
GRIPPER
100
AcDbLine
 10
491.660005
 20
231.476258
 30
0.0
 11
491.660005
 21
224.46796
 31
0.0
  0
LINE
  5
2B0
100
AcDbEntity
  8
GRIPPER
100
AcDbLine
 10
491.660005
 20
220.314009
 30
0.0
 11
485.060005
 21
220.314009
 31
0.0
  0
LINE
  5
2B1
100
AcDbEntity
  8
GRIPPER
100
AcDbLine
 10
485.060005
 20
220.572109
 30
0.0
 11
484.560005
 21
220.072109
 31
0.0
  0
LWPOLYLINE
  5
2B2
100
AcDbEntity
  8
OUTLINE
100
AcDbPolyline
 90
        2
 70
     0
 43
1.0
 10
491.660005
 20
224.46796
 10
491.660005
 20
220.314009
  0
LWPOLYLINE
  5
2B3
100
AcDbEntity
  8
GRIPPER
100
AcDbPolyline
 90
        2
 70
     0
 43
1.0
 10
491.660005
 20
220.314009
 10
491.260005
 20
220.314009
  0
ARC
  5
2B4
100
AcDbEntity
  8
GRIPPER
100
AcDbCircle
 10
491.94992
 20
226.220034
 30
0.0
 40
3.19366
100
AcDbArc
 50
326.728274
 51
33.271726
  0
ARC
  5
2B5
100
AcDbEntity
  8
GRIPPER
100
AcDbCircle
 10
491.94992
 20
229.724183
 30
0.0
 40
3.19366
100
AcDbArc
 50
326.728274
 51
33.271726
  0
LWPOLYLINE
  5
2B6
100
AcDbEntity
  8
OUTLINE
100
AcDbPolyline
 90
        2
 70
     0
 43
1.0
 10
495.143579
 20
229.724183
 10
495.143579
 20
226.220034
  0
LINE
  5
2B7
100
AcDbEntity
  8
GRIPPER
100
AcDbLine
 10
495.128213
 20
230.037091
 30
0.0
 11
495.128213
 21
225.907127
 31
0.0
  0
ARC
  5
2B8
100
AcDbEntity
  8
GRIPPER
100
AcDbCircle
 10
482.190005
 20
250.532259
 30
0.0
 40
1.72
100
AcDbArc
 50
0.0
 51
90.0
  0
ARC
  5
2B9
100
AcDbEntity
  8
GRIPPER
100
AcDbCircle
 10
481.885005
 20
240.672109
 30
0.0
 40
3.175
100
AcDbArc
 50
360.0
 51
90.0
  0
LINE
  5
2BA
100
AcDbEntity
  8
GRIPPER
100
AcDbLine
 10
485.060005
 20
240.227609
 30
0.0
 11
481.885005
 21
243.402609
 31
0.0
  0
LINE
  5
2BB
100
AcDbEntity
  8
GRIPPER
100
AcDbLine
 10
476.410005
 20
250.152259
 30
0.0
 11
483.910005
 21
250.152259
 31
0.0
  0
LINE
  5
2BC
100
AcDbEntity
  8
GRIPPER
100
AcDbLine
 10
476.410005
 20
250.532259
 30
0.0
 11
483.910005
 21
250.532259
 31
0.0
  0
LINE
  5
2BD
100
AcDbEntity
  8
GRIPPER
100
AcDbLine
 10
483.755005
 20
240.202609
 30
0.0
 11
477.755005
 21
240.202609
 31
0.0
  0
LWPOLYLINE
  5
2BE
100
AcDbEntity
  8
OUTLINE
100
AcDbPolyline
 90
        2
 70
     0
 43
1.0
 10
425.853755
 20
298.546009
 10
502.466505
 20
298.546009
  0
LINE
  5
2BF
100
AcDbEntity
  8
GRIPPER
100
AcDbLine
 10
490.866255
 20
246.952259
 30
0.0
 11
435.453755
 21
246.952259
 31
0.0
  0
LINE
  5
2C0
100
AcDbEntity
  8
GRIPPER
100
AcDbLine
 10
425.853755
 20
280.283409
 30
0.0
 11
500.498005
 21
280.283409
 31
0.0
  0
LINE
  5
2C1
100
AcDbEntity
  8
GRIPPER
100
AcDbLine
 10
502.466505
 20
298.546009
 30
0.0
 11
425.853755
 21
298.546009
 31
0.0
  0
LINE
  5
2C2
100
AcDbEntity
  8
GRIPPER
100
AcDbLine
 10
502.847505
 20
298.165009
 30
0.0
 11
425.853755
 21
298.165009
 31
0.0
  0
LINE
  5
2C3
100
AcDbEntity
  8
GRIPPER
100
AcDbLine
 10
435.953755
 20
250.152259
 30
0.0
 11
490.366255
 21
250.152259
 31
0.0
  0
LINE
  5
2C5
100
AcDbEntity
  8
GRIPPER
100
AcDbLine
 10
478.860005
 20
235.872109
 30
0.0
 11
485.060005
 21
235.872109
 31
0.0
  0
LWPOLYLINE
  5
2C7
100
AcDbEntity
  8
OUTLINE
100
AcDbPolyline
 90
        2
 70
     0
 43
1.0
 10
303.064398
 20
352.464361
 10
303.064398
 20
359.464361
  0
LINE
  5
2C8
100
AcDbEntity
  8
GRIPPER
100
AcDbLine
 10
303.064398
 20
359.464361
 30
0.0
 11
303.064398
 21
352.464361
 31
0.0
  0
LINE
  5
2C9
100
AcDbEntity
  8
GRIPPER
100
AcDbLine
 10
297.564398
 20
359.464361
 30
0.0
 11
297.564398
 21
352.464361
 31
0.0
  0
LINE
  5
2CA
100
AcDbEntity
  8
GRIPPER
  6
CENTER2
100
AcDbLine
 10
297.064398
 20
446.355732
 30
0.0
 11
297.064398
 21
337.860154
 31
0.0
  0
LWPOLYLINE
  5
2E7
100
AcDbEntity
  8
OUTLINE
100
AcDbPolyline
 90
        2
 70
     0
 43
1.0
 10
331.414502
 20
246.952259
 10
354.270648
 20
246.952259
  0
LINE
  5
2E8
100
AcDbEntity
  8
GRIPPER
100
AcDbLine
 10
332.414502
 20
246.952259
 30
0.0
 11
354.270648
 21
246.952259
 31
0.0
  0
LWPOLYLINE
  5
2E9
100
AcDbEntity
  8
OUTLINE
100
AcDbPolyline
 90
        2
 70
     0
 43
1.0
 10
325.064398
 20
279.983409
 10
325.064398
 20
263.437123
  0
LINE
  5
2EA
100
AcDbEntity
  8
GRIPPER
100
AcDbLine
 10
325.064398
 20
263.437123
 30
0.0
 11
325.064398
 21
279.983409
 31
0.0
  0
LINE
  5
2EB
100
AcDbEntity
  8
GRIPPER
100
AcDbLine
 10
333.576898
 20
246.952259
 30
0.0
 11
317.503953
 21
246.952259
 31
0.0
  0
LWPOLYLINE
  5
2EC
100
AcDbEntity
  8
OUTLINE
100
AcDbPolyline
 90
        2
 70
     0
 43
1.0
 10
325.064398
 20
263.437123
 10
330.944655
 20
247.281249
  0
LINE
  5
2ED
100
AcDbEntity
  8
GRIPPER
100
AcDbLine
 10
330.944655
 20
247.281249
 30
0.0
 11
325.064398
 21
263.437123
 31
0.0
  0
LWPOLYLINE
  5
2EE
100
AcDbEntity
  8
OUTLINE
100
AcDbPolyline
 90
        2
 70
     0
 43
1.0
 10
330.944655
 20
247.281249
 10
331.414502
 20
246.952259
  0
ARC
  5
2EF
100
AcDbEntity
  8
GRIPPER
100
AcDbCircle
 10
331.414502
 20
247.452259
 30
0.0
 40
0.5
100
AcDbArc
 50
200.0
 51
270.0
  0
LINE
  5
2F0
100
AcDbEntity
  8
GRIPPER
100
AcDbLine
 10
336.751898
 20
298.149134
 30
0.0
 11
310.624398
 21
298.149134
 31
0.0
  0
LINE
  5
2F1
100
AcDbEntity
  8
GRIPPER
100
AcDbLine
 10
336.751898
 20
293.339381
 30
0.0
 11
310.624398
 21
293.339381
 31
0.0
  0
LINE
  5
2F2
100
AcDbEntity
  8
GRIPPER
100
AcDbLine
 10
310.624398
 20
298.149134
 30
0.0
 11
310.624398
 21
293.546009
 31
0.0
  0
LINE
  5
2F3
100
AcDbEntity
  8
GRIPPER
100
AcDbLine
 10
310.227523
 20
298.546009
 30
0.0
 11
310.624398
 21
298.149134
 31
0.0
  0
LINE
  5
2F4
100
AcDbEntity
  8
GRIPPER
100
AcDbLine
 10
336.751898
 20
293.546009
 30
0.0
 11
334.413344
 21
280.283409
 31
0.0
  0
LWPOLYLINE
  5
2F5
100
AcDbEntity
  8
OUTLINE
100
AcDbPolyline
 90
        2
 70
     0
 43
1.0
 10
336.715464
 20
293.339381
 10
334.413344
 20
280.283409
  0
LWPOLYLINE
  5
2F6
100
AcDbEntity
  8
OUTLINE
100
AcDbPolyline
 90
        2
 70
     0
 43
1.0
 10
334.413344
 20
280.283409
 10
325.364398
 20
280.283409
  0
LWPOLYLINE
  5
2F7
100
AcDbEntity
  8
OUTLINE
100
AcDbPolyline
 90
        2
 70
     0
 43
1.0
 10
325.364398
 20
280.283409
 10
325.064398
 20
279.983409
  0
ARC
  5
2F8
100
AcDbEntity
  8
GRIPPER
100
AcDbCircle
 10
325.364398
 20
279.983409
 30
0.0
 40
0.3
100
AcDbArc
 50
90.0
 51
180.0
  0
LWPOLYLINE
  5
2F9
100
AcDbEntity
  8
OUTLINE
100
AcDbPolyline
 90
        2
 70
     0
 43
1.0
 10
336.355023
 20
298.546009
 10
336.751898
 20
298.149134
  0
LWPOLYLINE
  5
2FA
100
AcDbEntity
  8
OUTLINE
100
AcDbPolyline
 90
        2
 70
     0
 43
1.0
 10
336.751898
 20
298.149134
 10
336.715464
 20
293.339381
  0
LINE
  5
2FB
100
AcDbEntity
  8
GRIPPER
100
AcDbLine
 10
336.355023
 20
298.546009
 30
0.0
 11
336.751898
 21
298.149134
 31
0.0
  0
LINE
  5
2FC
100
AcDbEntity
  8
GRIPPER
100
AcDbLine
 10
336.751898
 20
298.149134
 30
0.0
 11
336.751898
 21
293.546009
 31
0.0
  0
LINE
  5
2FD
100
AcDbEntity
  8
GRIPPER
100
AcDbLine
 10
336.355023
 20
298.546009
 30
0.0
 11
336.751898
 21
298.149134
 31
0.0
  0
LINE
  5
2FE
100
AcDbEntity
  8
GRIPPER
100
AcDbLine
 10
354.270648
 20
246.952259
 30
0.0
 11
355.064398
 21
246.158509
 31
0.0
  0
LWPOLYLINE
  5
2FF
100
AcDbEntity
  8
OUTLINE
100
AcDbPolyline
 90
        2
 70
     0
 43
1.0
 10
354.270648
 20
246.952259
 10
355.064398
 20
246.158509
  0
LWPOLYLINE
  5
300
100
AcDbEntity
  8
OUTLINE
100
AcDbPolyline
 90
        2
 70
     0
 43
1.0
 10
302.564398
 20
342.964361
 10
302.564398
 20
352.103276
  0
LINE
  5
301
100
AcDbEntity
  8
GRIPPER
100
AcDbLine
 10
302.564398
 20
352.103276
 30
0.0
 11
302.564398
 21
342.964361
 31
0.0
  0
LWPOLYLINE
  5
302
100
AcDbEntity
  8
OUTLINE
100
AcDbPolyline
 90
        2
 70
     0
 43
1.0
 10
302.564398
 20
352.103276
 10
303.064398
 20
352.464361
  0
ARC
  5
303
100
AcDbEntity
  8
GRIPPER
100
AcDbCircle
 10
300.314398
 20
355.745611
 30
0.0
 40
4.28125
100
AcDbArc
 50
230.033787
 51
309.966213
  0
LINE
  5
304
100
AcDbEntity
  8
GRIPPER
100
AcDbLine
 10
297.564398
 20
352.464361
 30
0.0
 11
297.064398
 21
352.464361
 31
0.0
  0
TEXT
  5
305
100
AcDbEntity
  8
DIM_GRIP
 62
     2
100
AcDbText
 10
401.749122
 20
117.376578
 30
0.0
 40
3.0
  1
2050-25 gripper
  7
ROMANS
100
AcDbText
  0
LINE
  5
307
100
AcDbEntity
  8
GRIPPER
100
AcDbLine
 10
441.836116
 20
250.286009
 30
0.0
 11
408.318229
 21
250.286009
 31
0.0
  0
LINE
  5
308
100
AcDbEntity
  8
GRIPPER
100
AcDbLine
 10
440.245612
 20
293.546009
 30
0.0
 11
425.853755
 21
293.546009
 31
0.0
  0
LWPOLYLINE
  5
309
100
AcDbEntity
  8
OUTLINE
100
AcDbPolyline
 90
        2
 70
     0
 43
1.0
 10
435.160005
 20
263.437123
 10
435.160005
 20
279.983409
  0
LINE
  5
30A
100
AcDbEntity
  8
GRIPPER
100
AcDbLine
 10
435.160005
 20
263.437123
 30
0.0
 11
435.160005
 21
279.983409
 31
0.0
  0
LINE
  5
30B
100
AcDbEntity
  8
GRIPPER
100
AcDbLine
 10
432.660005
 20
256.686009
 30
0.0
 11
432.660005
 21
243.886009
 31
0.0
  0
LINE
  5
30C
100
AcDbEntity
  8
GRIPPER
100
AcDbLine
 10
431.160005
 20
256.686009
 30
0.0
 11
431.160005
 21
243.886009
 31
0.0
  0
ARC
  5
30D
100
AcDbEntity
  8
GRIPPER
100
AcDbCircle
 10
427.441255
 20
253.536009
 30
0.0
 40
4.28125
100
AcDbArc
 50
140.033787
 51
219.966213
  0
LINE
  5
30E
100
AcDbEntity
  8
GRIPPER
100
AcDbLine
 10
416.660005
 20
255.786009
 30
0.0
 11
416.660005
 21
244.786009
 31
0.0
  0
LINE
  5
30F
100
AcDbEntity
  8
GRIPPER
100
AcDbLine
 10
414.660005
 20
255.786009
 30
0.0
 11
414.660005
 21
244.786009
 31
0.0
  0
LINE
  5
310
100
AcDbEntity
  8
GRIPPER
100
AcDbLine
 10
431.160005
 20
244.286009
 30
0.0
 11
424.160005
 21
244.286009
 31
0.0
  0
LINE
  5
311
100
AcDbEntity
  8
GRIPPER
100
AcDbLine
 10
431.160005
 20
250.786009
 30
0.0
 11
424.160005
 21
250.786009
 31
0.0
  0
LINE
  5
312
100
AcDbEntity
  8
GRIPPER
100
AcDbLine
 10
431.160005
 20
249.786009
 30
0.0
 11
424.160005
 21
249.786009
 31
0.0
  0
LINE
  5
313
100
AcDbEntity
  8
GRIPPER
100
AcDbLine
 10
423.798921
 20
244.786009
 30
0.0
 11
414.660005
 21
244.786009
 31
0.0
  0
LINE
  5
314
100
AcDbEntity
  8
GRIPPER
100
AcDbLine
 10
424.160005
 20
250.786009
 30
0.0
 11
424.160005
 21
250.286009
 31
0.0
  0
LINE
  5
315
100
AcDbEntity
  8
GRIPPER
100
AcDbLine
 10
424.160005
 20
250.286009
 30
0.0
 11
424.160005
 21
249.786009
 31
0.0
  0
ARC
  5
316
100
AcDbEntity
  8
GRIPPER
100
AcDbCircle
 10
427.441255
 20
247.036009
 30
0.0
 40
4.28125
100
AcDbArc
 50
140.033787
 51
219.966213
  0
LINE
  5
317
100
AcDbEntity
  8
GRIPPER
100
AcDbLine
 10
434.660005
 20
243.886009
 30
0.0
 11
431.160005
 21
243.886009
 31
0.0
  0
LINE
  5
318
100
AcDbEntity
  8
GRIPPER
100
AcDbLine
 10
434.660005
 20
246.158509
 30
0.0
 11
435.453755
 21
246.952259
 31
0.0
  0
LINE
  5
319
100
AcDbEntity
  8
GRIPPER
100
AcDbLine
 10
435.953755
 20
246.952259
 30
0.0
 11
435.953755
 21
250.152259
 31
0.0
  0
LINE
  5
31A
100
AcDbEntity
  8
GRIPPER
100
AcDbLine
 10
431.160005
 20
256.286009
 30
0.0
 11
424.160005
 21
256.286009
 31
0.0
  0
LINE
  5
31B
100
AcDbEntity
  8
GRIPPER
100
AcDbLine
 10
423.798921
 20
255.786009
 30
0.0
 11
414.660005
 21
255.786009
 31
0.0
  0
LINE
  5
31C
100
AcDbEntity
  8
GRIPPER
100
AcDbLine
 10
434.660005
 20
256.686009
 30
0.0
 11
431.160005
 21
256.686009
 31
0.0
  0
LWPOLYLINE
  5
31D
100
AcDbEntity
  8
OUTLINE
100
AcDbPolyline
 90
        2
 70
     0
 43
1.0
 10
434.660005
 20
262.063384
 10
435.160005
 20
263.437123
  0
LWPOLYLINE
  5
31F
100
AcDbEntity
  8
OUTLINE
100
AcDbPolyline
 90
        2
 70
     0
 43
1.0
 10
405.853755
 20
292.920809
 10
414.992671
 20
292.920809
  0
LWPOLYLINE
  5
320
100
AcDbEntity
  8
OUTLINE
100
AcDbPolyline
 90
        2
 70
     0
 43
1.0
 10
414.992671
 20
281.920809
 10
405.853755
 20
281.920809
  0
LINE
  5
321
100
AcDbEntity
  8
GRIPPER
100
AcDbLine
 10
432.529866
 20
287.420809
 30
0.0
 11
399.011979
 21
287.420809
 31
0.0
  0
LINE
  5
322
100
AcDbEntity
  8
GRIPPER
100
AcDbLine
 10
414.992671
 20
281.920809
 30
0.0
 11
405.853755
 21
281.920809
 31
0.0
  0
LINE
  5
323
100
AcDbEntity
  8
GRIPPER
100
AcDbLine
 10
414.992671
 20
292.920809
 30
0.0
 11
405.853755
 21
292.920809
 31
0.0
  0
LWPOLYLINE
  5
324
100
AcDbEntity
  8
OUTLINE
100
AcDbPolyline
 90
        2
 70
     0
 43
1.0
 10
405.853755
 20
281.920809
 10
405.853755
 20
292.920809
  0
LINE
  5
325
100
AcDbEntity
  8
GRIPPER
100
AcDbLine
 10
405.853755
 20
292.920809
 30
0.0
 11
405.853755
 21
281.920809
 31
0.0
  0
LINE
  5
326
100
AcDbEntity
  8
GRIPPER
100
AcDbLine
 10
407.853755
 20
292.920809
 30
0.0
 11
407.853755
 21
281.920809
 31
0.0
  0
LINE
  5
327
100
AcDbEntity
  8
GRIPPER
100
AcDbLine
 10
422.353755
 20
293.820809
 30
0.0
 11
422.353755
 21
281.020809
 31
0.0
  0
LINE
  5
328
100
AcDbEntity
  8
GRIPPER
100
AcDbLine
 10
423.853755
 20
293.820809
 30
0.0
 11
423.853755
 21
281.020809
 31
0.0
  0
ARC
  5
329
100
AcDbEntity
  8
GRIPPER
100
AcDbCircle
 10
418.635005
 20
290.670809
 30
0.0
 40
4.28125
100
AcDbArc
 50
140.033787
 51
219.966213
  0
LINE
  5
32A
100
AcDbEntity
  8
GRIPPER
100
AcDbLine
 10
425.853755
 20
298.546009
 30
0.0
 11
425.853755
 21
280.283409
 31
0.0
  0
LWPOLYLINE
  5
32B
100
AcDbEntity
  8
OUTLINE
100
AcDbPolyline
 90
        2
 70
     0
 43
1.0
 10
425.853755
 20
281.020809
 10
422.353755
 20
281.020809
  0
LINE
  5
32C
100
AcDbEntity
  8
GRIPPER
100
AcDbLine
 10
425.853755
 20
281.020809
 30
0.0
 11
422.353755
 21
281.020809
 31
0.0
  0
LINE
  5
32D
100
AcDbEntity
  8
GRIPPER
100
AcDbLine
 10
422.353755
 20
287.920809
 30
0.0
 11
415.353755
 21
287.920809
 31
0.0
  0
LINE
  5
32E
100
AcDbEntity
  8
GRIPPER
100
AcDbLine
 10
422.353755
 20
286.920809
 30
0.0
 11
415.353755
 21
286.920809
 31
0.0
  0
LWPOLYLINE
  5
32F
100
AcDbEntity
  8
OUTLINE
100
AcDbPolyline
 90
        2
 70
     0
 43
1.0
 10
422.353755
 20
281.420809
 10
415.353755
 20
281.420809
  0
LINE
  5
330
100
AcDbEntity
  8
GRIPPER
100
AcDbLine
 10
422.353755
 20
281.420809
 30
0.0
 11
415.353755
 21
281.420809
 31
0.0
  0
LINE
  5
331
100
AcDbEntity
  8
GRIPPER
100
AcDbLine
 10
415.353755
 20
287.420809
 30
0.0
 11
415.353755
 21
286.920809
 31
0.0
  0
LINE
  5
332
100
AcDbEntity
  8
GRIPPER
100
AcDbLine
 10
415.353755
 20
287.920809
 30
0.0
 11
415.353755
 21
287.420809
 31
0.0
  0
LWPOLYLINE
  5
333
100
AcDbEntity
  8
OUTLINE
100
AcDbPolyline
 90
        2
 70
     0
 43
1.0
 10
415.353755
 20
281.420809
 10
414.992671
 20
281.920809
  0
ARC
  5
334
100
AcDbEntity
  8
GRIPPER
100
AcDbCircle
 10
418.635005
 20
284.170809
 30
0.0
 40
4.28125
100
AcDbArc
 50
140.033787
 51
219.966213
  0
LWPOLYLINE
  5
335
100
AcDbEntity
  8
GRIPPER
100
AcDbPolyline
 90
        2
 70
     0
 43
1.0
 10
422.353755
 20
281.020809
 10
422.353755
 20
281.420809
  0
LWPOLYLINE
  5
336
100
AcDbEntity
  8
OUTLINE
100
AcDbPolyline
 90
        2
 70
     0
 43
1.0
 10
425.853755
 20
280.283409
 10
425.853755
 20
281.020809
  0
LWPOLYLINE
  5
337
100
AcDbEntity
  8
OUTLINE
100
AcDbPolyline
 90
        2
 70
     0
 43
1.0
 10
434.860005
 20
280.283409
 10
425.853755
 20
280.283409
  0
LWPOLYLINE
  5
338
100
AcDbEntity
  8
OUTLINE
100
AcDbPolyline
 90
        2
 70
     0
 43
1.0
 10
435.160005
 20
279.983409
 10
434.860005
 20
280.283409
  0
ARC
  5
339
100
AcDbEntity
  8
GRIPPER
100
AcDbCircle
 10
434.860005
 20
279.983409
 30
0.0
 40
0.3
100
AcDbArc
 50
0.0
 51
90.0
  0
LWPOLYLINE
  5
33A
100
AcDbEntity
  8
OUTLINE
100
AcDbPolyline
 90
        2
 70
     0
 43
1.0
 10
422.353755
 20
293.820809
 10
425.853755
 20
293.820809
  0
LINE
  5
33B
100
AcDbEntity
  8
GRIPPER
100
AcDbLine
 10
425.853755
 20
293.820809
 30
0.0
 11
422.353755
 21
293.820809
 31
0.0
  0
LWPOLYLINE
  5
33C
100
AcDbEntity
  8
OUTLINE
100
AcDbPolyline
 90
        2
 70
     0
 43
1.0
 10
415.353755
 20
293.420809
 10
422.353755
 20
293.420809
  0
LINE
  5
33D
100
AcDbEntity
  8
GRIPPER
100
AcDbLine
 10
422.353755
 20
293.420809
 30
0.0
 11
415.353755
 21
293.420809
 31
0.0
  0
LWPOLYLINE
  5
33E
100
AcDbEntity
  8
OUTLINE
100
AcDbPolyline
 90
        2
 70
     0
 43
1.0
 10
414.992671
 20
292.920809
 10
415.353755
 20
293.420809
  0
LWPOLYLINE
  5
33F
100
AcDbEntity
  8
GRIPPER
100
AcDbPolyline
 90
        2
 70
     0
 43
1.0
 10
422.353755
 20
293.420809
 10
422.353755
 20
293.820809
  0
LWPOLYLINE
  5
340
100
AcDbEntity
  8
OUTLINE
100
AcDbPolyline
 90
        2
 70
     0
 43
1.0
 10
425.853755
 20
293.820809
 10
425.853755
 20
298.546009
  0
LINE
  5
341
100
AcDbEntity
  8
GRIPPER
100
AcDbLine
 10
481.885005
 20
243.402609
 30
0.0
 11
444.435005
 21
243.402609
 31
0.0
  0
LINE
  5
342
100
AcDbEntity
  8
GRIPPER
100
AcDbLine
 10
444.435005
 20
243.847109
 30
0.0
 11
481.885005
 21
243.847109
 31
0.0
  0
LINE
  5
343
100
AcDbEntity
  8
GRIPPER
100
AcDbLine
 10
446.160005
 20
255.585889
 30
0.0
 11
446.160005
 21
241.770642
 31
0.0
  0
LINE
  5
344
100
AcDbEntity
  8
GRIPPER
100
AcDbLine
 10
448.190005
 20
252.252259
 30
0.0
 11
444.130005
 21
252.252259
 31
0.0
  0
LINE
  5
345
100
AcDbEntity
  8
GRIPPER
100
AcDbLine
 10
449.910005
 20
250.152259
 30
0.0
 11
442.410005
 21
250.152259
 31
0.0
  0
LINE
  5
346
100
AcDbEntity
  8
GRIPPER
100
AcDbLine
 10
449.910005
 20
250.532259
 30
0.0
 11
442.410005
 21
250.532259
 31
0.0
  0
LINE
  5
347
100
AcDbEntity
  8
GRIPPER
100
AcDbLine
 10
442.565005
 20
240.202609
 30
0.0
 11
448.565005
 21
240.202609
 31
0.0
  0
ARC
  5
348
100
AcDbEntity
  8
GRIPPER
100
AcDbCircle
 10
444.435005
 20
240.672109
 30
0.0
 40
3.175
100
AcDbArc
 50
90.0
 51
180.0
  0
LINE
  5
349
100
AcDbEntity
  8
GRIPPER
100
AcDbLine
 10
441.260005
 20
240.227609
 30
0.0
 11
444.435005
 21
243.402609
 31
0.0
  0
LINE
  5
34A
100
AcDbEntity
  8
GRIPPER
100
AcDbLine
 10
447.460005
 20
235.872109
 30
0.0
 11
441.260005
 21
235.872109
 31
0.0
  0
LINE
  5
34B
100
AcDbEntity
  8
GRIPPER
100
AcDbLine
 10
441.760005
 20
235.872109
 30
0.0
 11
441.260005
 21
235.372109
 31
0.0
  0
LINE
  5
34C
100
AcDbEntity
  8
GRIPPER
100
AcDbLine
 10
441.260005
 20
235.872109
 30
0.0
 11
441.260005
 21
240.227609
 31
0.0
  0
LINE
  5
34D
100
AcDbEntity
  8
GRIPPER
100
AcDbLine
 10
442.565005
 20
241.532609
 30
0.0
 11
442.565005
 21
240.202609
 31
0.0
  0
LINE
  5
34E
100
AcDbEntity
  8
GRIPPER
100
AcDbLine
 10
446.960005
 20
235.872109
 30
0.0
 11
447.460005
 21
235.372109
 31
0.0
  0
LINE
  5
34F
100
AcDbEntity
  8
GRIPPER
100
AcDbLine
 10
442.410005
 20
250.152259
 30
0.0
 11
442.410005
 21
250.532259
 31
0.0
  0
ARC
  5
350
100
AcDbEntity
  8
GRIPPER
100
AcDbCircle
 10
444.130005
 20
250.532259
 30
0.0
 40
1.72
100
AcDbArc
 50
90.0
 51
180.0
  0
LINE
  5
351
100
AcDbEntity
  8
GRIPPER
100
AcDbLine
 10
448.565005
 20
243.402609
 30
0.0
 11
448.565005
 21
240.202609
 31
0.0
  0
LINE
  5
352
100
AcDbEntity
  8
GRIPPER
100
AcDbLine
 10
449.910005
 20
250.532259
 30
0.0
 11
449.910005
 21
250.152259
 31
0.0
  0
ARC
  5
353
100
AcDbEntity
  8
GRIPPER
100
AcDbCircle
 10
448.190005
 20
250.532259
 30
0.0
 40
1.72
100
AcDbArc
 50
0.0
 51
90.0
  0
LINE
  5
354
100
AcDbEntity
  8
GRIPPER
100
AcDbLine
 10
480.160005
 20
255.585889
 30
0.0
 11
480.160005
 21
241.770642
 31
0.0
  0
LINE
  5
355
100
AcDbEntity
  8
GRIPPER
100
AcDbLine
 10
477.755005
 20
243.402609
 30
0.0
 11
477.755005
 21
240.202609
 31
0.0
  0
LINE
  5
356
100
AcDbEntity
  8
GRIPPER
100
AcDbLine
 10
479.360005
 20
235.872109
 30
0.0
 11
478.860005
 21
235.372109
 31
0.0
  0
ARC
  5
357
100
AcDbEntity
  8
GRIPPER
100
AcDbCircle
 10
478.130005
 20
250.532259
 30
0.0
 40
1.72
100
AcDbArc
 50
90.0
 51
180.0
  0
LINE
  5
358
100
AcDbEntity
  8
GRIPPER
100
AcDbLine
 10
476.410005
 20
250.532259
 30
0.0
 11
476.410005
 21
250.152259
 31
0.0
  0
LINE
  5
359
100
AcDbEntity
  8
GRIPPER
100
AcDbLine
 10
478.130005
 20
252.252259
 30
0.0
 11
482.190005
 21
252.252259
 31
0.0
  0
LINE
  5
35A
100
AcDbEntity
  8
GRIPPER
100
AcDbLine
 10
453.478667
 20
298.546009
 30
0.0
 11
453.633779
 21
280.283409
 31
0.0
  0
LINE
  5
35B
100
AcDbEntity
  8
GRIPPER
100
AcDbLine
 10
440.245612
 20
293.546009
 30
0.0
 11
441.886436
 21
280.283409
 31
0.0
  0
LINE
  5
35C
100
AcDbEntity
  8
GRIPPER
100
AcDbLine
 10
440.245612
 20
298.165009
 30
0.0
 11
440.245612
 21
293.546009
 31
0.0
  0
LINE
  5
35D
100
AcDbEntity
  8
GRIPPER
100
AcDbLine
 10
472.841344
 20
298.546009
 30
0.0
 11
472.686232
 21
280.283409
 31
0.0
  0
CIRCLE
  5
360
100
AcDbEntity
  8
GRIPPER
100
AcDbCircle
 10
308.203588
 20
430.835603
 30
0.0
 40
2.799999
  0
LINE
  5
361
100
AcDbEntity
  8
GRIPPER
100
AcDbLine
 10
306.789639
 20
426.955054
 30
0.0
 11
309.913906
 21
435.529533
 31
0.0
  0
LWPOLYLINE
  5
373
100
AcDbEntity
  8
OUTLINE
100
AcDbPolyline
 90
        2
 70
     0
 43
1.0
 10
324.684095
 20
371.764361
 10
354.564398
 20
371.764361
  0
LWPOLYLINE
  5
374
100
AcDbEntity
  8
OUTLINE
100
AcDbPolyline
 90
        2
 70
     0
 43
1.0
 10
354.564398
 20
428.764361
 10
324.684095
 20
428.764361
  0
LINE
  5
375
100
AcDbEntity
  8
GRIPPER
100
AcDbLine
 10
354.564398
 20
371.764361
 30
0.0
 11
324.684095
 21
371.764361
 31
0.0
  0
LINE
  5
376
100
AcDbEntity
  8
GRIPPER
100
AcDbLine
 10
354.564398
 20
428.764361
 30
0.0
 11
324.684095
 21
428.764361
 31
0.0
  0
CIRCLE
  5
377
100
AcDbEntity
  8
GRIPPER
100
AcDbCircle
 10
317.970276
 20
375.331919
 30
0.0
 40
2.799999
  0
LINE
  5
378
100
AcDbEntity
  8
GRIPPER
100
AcDbLine
 10
315.316596
 20
378.496709
 30
0.0
 11
321.180178
 21
371.503774
 31
0.0
  0
LWPOLYLINE
  5
379
100
AcDbEntity
  8
OUTLINE
100
AcDbPolyline
 90
        2
 70
     0
 43
1.0
 10
310.621966
 20
362.964361
 42
0.105662
 10
324.684095
 20
371.764361
 42
0.105662
  0
LWPOLYLINE
  5
37A
100
AcDbEntity
  8
OUTLINE
100
AcDbPolyline
 90
        2
 70
     0
 43
1.0
 10
303.464398
 20
362.964361
 10
310.621966
 20
362.964361
  0
LWPOLYLINE
  5
37B
100
AcDbEntity
  8
GRIPPER
100
AcDbPolyline
 90
        2
 70
     0
 43
1.0
 10
303.064398
 20
359.464361
 10
303.464398
 20
359.464361
  0
LWPOLYLINE
  5
37C
100
AcDbEntity
  8
OUTLINE
100
AcDbPolyline
 90
        2
 70
     0
 43
1.0
 10
303.464398
 20
359.464361
 10
303.464398
 20
362.964361
  0
LINE
  5
37D
100
AcDbEntity
  8
GRIPPER
100
AcDbLine
 10
303.464398
 20
362.964361
 30
0.0
 11
303.464398
 21
359.464361
 31
0.0
  0
LINE
  5
383
100
AcDbEntity
  8
GRIPPER
100
AcDbLine
 10
324.828861
 20
405.149926
 30
0.0
 11
333.390069
 21
406.656396
 31
0.0
  0
CIRCLE
  5
384
100
AcDbEntity
  8
GRIPPER
100
AcDbCircle
 10
329.109465
 20
405.903161
 30
0.0
 40
2.799999
  0
LWPOLYLINE
  5
385
100
AcDbEntity
  8
OUTLINE
100
AcDbPolyline
 90
        2
 70
     0
 43
1.0
 10
355.064398
 20
372.264361
 10
355.064398
 20
428.264361
  0
LINE
  5
386
100
AcDbEntity
  8
GRIPPER
100
AcDbLine
 10
355.064398
 20
428.264361
 30
0.0
 11
355.064398
 21
372.264361
 31
0.0
  0
LWPOLYLINE
  5
388
100
AcDbEntity
  8
OUTLINE
100
AcDbPolyline
 90
        2
 70
     0
 43
1.0
 10
354.564398
 20
371.764361
 10
355.064398
 20
372.264361
  0
LINE
  5
389
100
AcDbEntity
  8
GRIPPER
100
AcDbLine
 10
354.564398
 20
371.764361
 30
0.0
 11
355.064398
 21
372.264361
 31
0.0
  0
LWPOLYLINE
  5
38A
100
AcDbEntity
  8
OUTLINE
100
AcDbPolyline
 90
        2
 70
     0
 43
1.0
 10
355.064398
 20
428.264361
 10
354.564398
 20
428.764361
  0
LINE
  5
38B
100
AcDbEntity
  8
GRIPPER
100
AcDbLine
 10
354.564398
 20
428.764361
 30
0.0
 11
355.064398
 21
428.264361
 31
0.0
  0
LINE
  5
38F
100
AcDbEntity
  8
GRIPPER
100
AcDbLine
 10
491.160005
 20
263.437123
 30
0.0
 11
491.160005
 21
279.983409
 31
0.0
  0
LWPOLYLINE
  5
390
100
AcDbEntity
  8
OUTLINE
100
AcDbPolyline
 90
        2
 70
     0
 43
1.0
 10
491.160005
 20
279.983409
 10
491.160005
 20
263.437123
  0
LINE
  5
391
100
AcDbEntity
  8
GRIPPER
100
AcDbLine
 10
483.755005
 20
241.532609
 30
0.0
 11
483.755005
 21
240.202609
 31
0.0
  0
LINE
  5
392
100
AcDbEntity
  8
GRIPPER
100
AcDbLine
 10
484.560005
 20
235.872109
 30
0.0
 11
485.060005
 21
235.372109
 31
0.0
  0
LINE
  5
393
100
AcDbEntity
  8
GRIPPER
100
AcDbLine
 10
485.060005
 20
235.872109
 30
0.0
 11
485.060005
 21
240.227609
 31
0.0
  0
LINE
  5
394
100
AcDbEntity
  8
GRIPPER
100
AcDbLine
 10
483.910005
 20
250.152259
 30
0.0
 11
483.910005
 21
250.532259
 31
0.0
  0
LINE
  5
395
100
AcDbEntity
  8
GRIPPER
100
AcDbLine
 10
490.366255
 20
246.952259
 30
0.0
 11
490.366255
 21
250.152259
 31
0.0
  0
LINE
  5
396
100
AcDbEntity
  8
GRIPPER
100
AcDbLine
 10
491.660005
 20
246.158509
 30
0.0
 11
490.866255
 21
246.952259
 31
0.0
  0
LWPOLYLINE
  5
398
100
AcDbEntity
  8
OUTLINE
100
AcDbPolyline
 90
        2
 70
     0
 43
1.0
 10
491.160005
 20
263.437123
 10
491.660005
 20
262.063384
  0
LWPOLYLINE
  5
3A6
100
AcDbEntity
  8
OUTLINE
100
AcDbPolyline
 90
        2
 70
     0
 43
1.0
 10
502.847505
 20
293.546009
 10
500.508951
 20
280.283409
  0
LINE
  5
3A7
100
AcDbEntity
  8
GRIPPER
100
AcDbLine
 10
502.847505
 20
293.546009
 30
0.0
 11
500.508951
 21
280.283409
 31
0.0
  0
LINE
  5
3A8
100
AcDbEntity
  8
GRIPPER
100
AcDbLine
 10
486.074399
 20
293.546009
 30
0.0
 11
484.433575
 21
280.283409
 31
0.0
  0
LWPOLYLINE
  5
3A9
100
AcDbEntity
  8
OUTLINE
100
AcDbPolyline
 90
        2
 70
     0
 43
1.0
 10
500.508951
 20
280.283409
 10
491.460005
 20
280.283409
  0
ARC
  5
3AA
100
AcDbEntity
  8
GRIPPER
100
AcDbCircle
 10
491.460005
 20
279.983409
 30
0.0
 40
0.3
100
AcDbArc
 50
90.0
 51
180.0
  0
ARC
  5
3AB
100
AcDbEntity
  8
GRIPPER
100
AcDbCircle
 10
491.460005
 20
279.983409
 30
0.0
 40
0.3
100
AcDbArc
 50
90.0
 51
180.0
  0
LWPOLYLINE
  5
3AC
100
AcDbEntity
  8
OUTLINE
100
AcDbPolyline
 90
        2
 70
     0
 43
1.0
 10
491.460005
 20
280.283409
 10
491.160005
 20
279.983409
  0
LINE
  5
3AD
100
AcDbEntity
  8
GRIPPER
100
AcDbLine
 10
502.847505
 20
293.546009
 30
0.0
 11
486.074399
 21
293.546009
 31
0.0
  0
LINE
  5
3AE
100
AcDbEntity
  8
GRIPPER
100
AcDbLine
 10
486.074399
 20
298.165009
 30
0.0
 11
486.074399
 21
293.546009
 31
0.0
  0
LINE
  5
3AF
100
AcDbEntity
  8
GRIPPER
100
AcDbLine
 10
486.074399
 20
298.165009
 30
0.0
 11
485.799746
 21
298.546009
 31
0.0
  0
LWPOLYLINE
  5
3B0
100
AcDbEntity
  8
OUTLINE
100
AcDbPolyline
 90
        2
 70
     0
 43
1.0
 10
502.466505
 20
298.546009
 10
502.847505
 20
298.165009
  0
LWPOLYLINE
  5
3B1
100
AcDbEntity
  8
OUTLINE
100
AcDbPolyline
 90
        2
 70
     0
 43
1.0
 10
502.847505
 20
298.165009
 10
502.847505
 20
293.546009
  0
LINE
  5
3B2
100
AcDbEntity
  8
GRIPPER
100
AcDbLine
 10
502.847505
 20
293.546009
 30
0.0
 11
502.847505
 21
298.165009
 31
0.0
  0
LINE
  5
3B3
100
AcDbEntity
  8
GRIPPER
100
AcDbLine
 10
502.847505
 20
298.165009
 30
0.0
 11
502.466505
 21
298.546009
 31
0.0
  0
LWPOLYLINE
  5
3C9
100
AcDbEntity
  8
OUTLINE
100
AcDbPolyline
 90
        2
 70
     0
 43
1.0
 10
423.798921
 20
255.786009
 10
414.660005
 20
255.786009
  0
LWPOLYLINE
  5
3CA
100
AcDbEntity
  8
OUTLINE
100
AcDbPolyline
 90
        2
 70
     0
 43
1.0
 10
431.160005
 20
256.286009
 10
424.160005
 20
256.286009
  0
LWPOLYLINE
  5
3CB
100
AcDbEntity
  8
OUTLINE
100
AcDbPolyline
 90
        2
 70
     0
 43
1.0
 10
414.660005
 20
255.786009
 10
414.660005
 20
244.786009
  0
LWPOLYLINE
  5
3CC
100
AcDbEntity
  8
OUTLINE
100
AcDbPolyline
 90
        2
 70
     0
 43
1.0
 10
414.660005
 20
244.786009
 10
423.798921
 20
244.786009
  0
LWPOLYLINE
  5
3CD
100
AcDbEntity
  8
OUTLINE
100
AcDbPolyline
 90
        2
 70
     0
 43
1.0
 10
423.798921
 20
244.786009
 10
424.160005
 20
244.286009
  0
LWPOLYLINE
  5
3CE
100
AcDbEntity
  8
OUTLINE
100
AcDbPolyline
 90
        2
 70
     0
 43
1.0
 10
424.160005
 20
244.286009
 10
431.160005
 20
244.286009
  0
LWPOLYLINE
  5
3CF
100
AcDbEntity
  8
OUTLINE
100
AcDbPolyline
 90
        2
 70
     0
 43
1.0
 10
431.160005
 20
244.286009
 10
431.160005
 20
243.886009
  0
LWPOLYLINE
  5
3D0
100
AcDbEntity
  8
OUTLINE
100
AcDbPolyline
 90
        2
 70
     0
 43
1.0
 10
431.160005
 20
243.886009
 10
434.660005
 20
243.886009
  0
LWPOLYLINE
  5
3D1
100
AcDbEntity
  8
OUTLINE
100
AcDbPolyline
 90
        2
 70
     0
 43
1.0
 10
431.160005
 20
256.686009
 10
431.160005
 20
256.286009
  0
LWPOLYLINE
  5
3D2
100
AcDbEntity
  8
OUTLINE
100
AcDbPolyline
 90
        2
 70
     0
 43
1.0
 10
434.660005
 20
256.686009
 10
431.160005
 20
256.686009
  0
LWPOLYLINE
  5
3D3
100
AcDbEntity
  8
OUTLINE
100
AcDbPolyline
 90
        2
 70
     0
 43
1.0
 10
424.160005
 20
256.286009
 10
423.798921
 20
255.786009
  0
LWPOLYLINE
  5
3DA
100
AcDbEntity
  8
OUTLINE
100
AcDbPolyline
 90
        2
 70
     0
 43
1.0
 10
434.660005
 20
256.686009
 10
434.660005
 20
262.063384
  0
LINE
  5
414
100
AcDbEntity
  8
GRIPPER
  6
CENTER2
100
AcDbLine
 10
243.364398
 20
242.907282
 30
0.0
 11
243.364398
 21
254.216282
 31
0.0
  0
LINE
  5
415
100
AcDbEntity
  8
GRIPPER
  6
CENTER2
100
AcDbLine
 10
239.614398
 20
246.952259
 30
0.0
 11
239.614398
 21
250.152259
 31
0.0
  0
LINE
  5
417
100
AcDbEntity
  8
GRIPPER
100
AcDbLine
 10
263.114398
 20
250.152259
 30
0.0
 11
247.114398
 21
250.152259
 31
0.0
  0
LINE
  5
419
100
AcDbEntity
  8
GRIPPER
100
AcDbLine
 10
325.064398
 20
263.437123
 30
0.0
 11
269.064398
 21
263.437123
 31
0.0
  0
LINE
  5
48A
100
AcDbEntity
  8
GRIPPER
100
AcDbLine
 10
491.160005
 20
263.437123
 30
0.0
 11
435.160005
 21
263.437123
 31
0.0
  0
LINE
  5
48B
100
AcDbEntity
  8
GRIPPER
100
AcDbLine
 10
434.660005
 20
262.063384
 30
0.0
 11
435.160005
 21
263.437123
 31
0.0
  0
LINE
  5
48C
100
AcDbEntity
  8
GRIPPER
100
AcDbLine
 10
491.660005
 20
262.063384
 30
0.0
 11
491.160005
 21
263.437123
 31
0.0
  0
LWPOLYLINE
  5
493
100
AcDbEntity
  8
OUTLINE
100
AcDbPolyline
 90
        2
 70
     0
 43
1.0
 10
239.614398
 20
246.952259
 10
239.614398
 20
250.152259
  0
LINE
  5
499
100
AcDbEntity
  8
GRIPPER
100
AcDbLine
 10
247.114398
 20
250.532259
 30
0.0
 11
247.083223
 21
250.532259
 31
0.0
  0
LINE
  5
49A
100
AcDbEntity
  8
GRIPPER
100
AcDbLine
 10
247.114398
 20
250.152259
 30
0.0
 11
239.614398
 21
250.152259
 31
0.0
  0
LINE
  5
49B
100
AcDbEntity
  8
GRIPPER
100
AcDbLine
 10
245.394398
 20
252.252259
 30
0.0
 11
241.334398
 21
252.252259
 31
0.0
  0
ARC
  5
49C
100
AcDbEntity
  8
GRIPPER
100
AcDbCircle
 10
241.334398
 20
250.532259
 30
0.0
 40
1.72
100
AcDbArc
 50
90.0
 51
180.0
  0
LINE
  5
49D
100
AcDbEntity
  8
GRIPPER
100
AcDbLine
 10
239.614398
 20
250.152259
 30
0.0
 11
239.614398
 21
250.532259
 31
0.0
  0
ARC
  5
49E
100
AcDbEntity
  8
GRIPPER
100
AcDbCircle
 10
245.394398
 20
250.532259
 30
0.0
 40
1.72
100
AcDbArc
 50
0.0
 51
90.0
  0
LINE
  5
49F
100
AcDbEntity
  8
GRIPPER
100
AcDbLine
 10
247.114398
 20
250.532259
 30
0.0
 11
247.114398
 21
250.152259
 31
0.0
  0
LWPOLYLINE
  5
4A0
100
AcDbEntity
  8
OUTLINE
100
AcDbPolyline
 90
       16
 70
     0
 43
1.0
 10
239.614398
 20
250.152259
 10
239.686685
 20
251.025657
 10
239.858243
 20
251.415075
 10
240.237417
 20
251.857035
 10
240.668053
 20
252.11794
 10
241.092362
 20
252.235144
 10
241.334398
 20
252.252259
 10
245.394398
 20
252.252259
 10
245.790036
 20
252.206137
 10
246.279801
 20
252.006864
 10
246.539723
 20
251.815469
 10
246.795544
 20
251.52985
 10
246.964044
 20
251.235546
 10
247.042986
 20
251.022725
 10
247.042986
 20
251.022725
 10
247.114398
 20
250.152259
  0
LINE
  5
4A1
100
AcDbEntity
  8
GRIPPER
100
AcDbLine
 10
239.645849
 20
250.532259
 30
0.0
 11
239.614398
 21
250.532259
 31
0.0
  0
LWPOLYLINE
  5
4A2
100
AcDbEntity
  8
OUTLINE
100
AcDbPolyline
 90
        4
 70
     0
 43
1.0
 10
247.114398
 20
250.152259
 10
263.114398
 20
250.152259
 10
263.114398
 20
246.952259
 10
263.114398
 20
250.152259
  0
TEXT
  5
4A7
100
AcDbEntity
  8
DIM_GRIP
 62
     2
100
AcDbText
 10
401.749122
 20
122.986163
 30
0.0
 40
3.0
  1
SPA (GB) Limited
  7
ROMANS
100
AcDbText
  0
ENDSEC
  0
SECTION
  2
OBJECTS
  0
DICTIONARY
  5
1A
100
AcDbDictionary
  3
ACAD_GROUP
350
18
  3
ACAD_MLINESTYLE
350
19
  0
DICTIONARY
  5
18
102
{ACAD_REACTORS
330
1A
102
}
100
AcDbDictionary
  0
DICTIONARY
  5
19
102
{ACAD_REACTORS
330
1A
102
}
100
AcDbDictionary
  3
STANDARD
350
1D
  0
MLINESTYLE
  5
1D
102
{ACAD_REACTORS
330
19
102
}
100
AcDbMlineStyle
  2
STANDARD
 70
     0
  3

 62
   256
 51
90.0
 52
90.0
 71
     2
 49
0.5
 62
   256
  6
BYLAYER
 49
-0.5
 62
   256
  6
BYLAYER
  0
ENDSEC
  0
EOF
